ISO-10303-21;
HEADER;
/* Generated by software containing ST-Developer
 * from STEP Tools, Inc. (www.steptools.com) 
 */

FILE_DESCRIPTION(
/* description */ ('SILENZIATORE BRONZO 1/8"'),
/* implementation_level */ '2;1');

FILE_NAME(
/* name */ 'C:\\Users\\locatst1\\Desktop\\6_06_18.stp',
/* time_stamp */ '2015-05-11T11:51:35+02:00',
/* author */ ('Locatst1'),
/* organization */ ('Pneumax S.p.A.'),
/* preprocessor_version */ 'ST-DEVELOPER v15.2',
/* originating_system */ 'Autodesk Inventor 2014',
/* authorisation */ '');

FILE_SCHEMA (('AUTOMOTIVE_DESIGN { 1 0 10303 214 3 1 1 }'));
ENDSEC;

DATA;
#10=SHAPE_REPRESENTATION_RELATIONSHIP('SRR','None',#137,#11);
#11=ADVANCED_BREP_SHAPE_REPRESENTATION($,(#73),#128);
#12=CYLINDRICAL_SURFACE($,#79,6.);
#13=CYLINDRICAL_SURFACE($,#83,4.865);
#14=FACE_BOUND($,#27,.T.);
#15=FACE_BOUND($,#29,.T.);
#16=FACE_BOUND($,#30,.T.);
#17=FACE_BOUND($,#31,.T.);
#18=FACE_BOUND($,#33,.T.);
#19=CONICAL_SURFACE($,#77,5.63314554501871,3.00000000000003);
#20=FACE_OUTER_BOUND($,#25,.T.);
#21=FACE_OUTER_BOUND($,#26,.T.);
#22=FACE_OUTER_BOUND($,#28,.T.);
#23=FACE_OUTER_BOUND($,#32,.T.);
#24=FACE_OUTER_BOUND($,#34,.T.);
#25=EDGE_LOOP($,(#50));
#26=EDGE_LOOP($,(#51));
#27=EDGE_LOOP($,(#52));
#28=EDGE_LOOP($,(#53));
#29=EDGE_LOOP($,(#54));
#30=EDGE_LOOP($,(#55));
#31=EDGE_LOOP($,(#56));
#32=EDGE_LOOP($,(#57));
#33=EDGE_LOOP($,(#58));
#34=EDGE_LOOP($,(#59));
#35=CIRCLE($,#76,5.26629109003742);
#36=CIRCLE($,#78,6.);
#37=CIRCLE($,#80,6.);
#38=CIRCLE($,#82,4.865);
#39=CIRCLE($,#84,4.865);
#40=VERTEX_POINT($,#112);
#41=VERTEX_POINT($,#115);
#42=VERTEX_POINT($,#118);
#43=VERTEX_POINT($,#121);
#44=VERTEX_POINT($,#124);
#45=EDGE_CURVE($,#40,#40,#35,.T.);
#46=EDGE_CURVE($,#41,#41,#36,.T.);
#47=EDGE_CURVE($,#42,#42,#37,.T.);
#48=EDGE_CURVE($,#43,#43,#38,.T.);
#49=EDGE_CURVE($,#44,#44,#39,.T.);
#50=ORIENTED_EDGE($,*,*,#45,.F.);
#51=ORIENTED_EDGE($,*,*,#46,.F.);
#52=ORIENTED_EDGE($,*,*,#45,.T.);
#53=ORIENTED_EDGE($,*,*,#47,.F.);
#54=ORIENTED_EDGE($,*,*,#46,.T.);
#55=ORIENTED_EDGE($,*,*,#48,.F.);
#56=ORIENTED_EDGE($,*,*,#47,.T.);
#57=ORIENTED_EDGE($,*,*,#49,.F.);
#58=ORIENTED_EDGE($,*,*,#48,.T.);
#59=ORIENTED_EDGE($,*,*,#49,.T.);
#60=PLANE($,#75);
#61=PLANE($,#81);
#62=PLANE($,#85);
#63=STYLED_ITEM($,(#146),#66);
#64=STYLED_ITEM($,(#146),#67);
#65=STYLED_ITEM($,(#145),#73);
#66=ADVANCED_FACE($,(#20),#60,.T.);
#67=ADVANCED_FACE($,(#21,#14),#19,.T.);
#68=ADVANCED_FACE($,(#22,#15),#12,.T.);
#69=ADVANCED_FACE($,(#16,#17),#61,.T.);
#70=ADVANCED_FACE($,(#23,#18),#13,.T.);
#71=ADVANCED_FACE($,(#24),#62,.T.);
#72=CLOSED_SHELL($,(#66,#67,#68,#69,#70,#71));
#73=MANIFOLD_SOLID_BREP('Solido1',#72);
#74=AXIS2_PLACEMENT_3D('placement',#110,#86,#87);
#75=AXIS2_PLACEMENT_3D($,#111,#88,#89);
#76=AXIS2_PLACEMENT_3D($,#113,#90,#91);
#77=AXIS2_PLACEMENT_3D($,#114,#92,#93);
#78=AXIS2_PLACEMENT_3D($,#116,#94,#95);
#79=AXIS2_PLACEMENT_3D($,#117,#96,#97);
#80=AXIS2_PLACEMENT_3D($,#119,#98,#99);
#81=AXIS2_PLACEMENT_3D($,#120,#100,#101);
#82=AXIS2_PLACEMENT_3D($,#122,#102,#103);
#83=AXIS2_PLACEMENT_3D($,#123,#104,#105);
#84=AXIS2_PLACEMENT_3D($,#125,#106,#107);
#85=AXIS2_PLACEMENT_3D($,#126,#108,#109);
#86=DIRECTION('axis',(0.,0.,1.));
#87=DIRECTION('refdir',(1.,0.,0.));
#88=DIRECTION('center_axis',(0.,1.,0.));
#89=DIRECTION('ref_axis',(0.,0.,1.));
#90=DIRECTION('center_axis',(0.,-1.,0.));
#91=DIRECTION('ref_axis',(1.,0.,0.));
#92=DIRECTION('center_axis',(0.,-1.,0.));
#93=DIRECTION('ref_axis',(1.,0.,0.));
#94=DIRECTION('center_axis',(0.,-1.,0.));
#95=DIRECTION('ref_axis',(1.,0.,0.));
#96=DIRECTION('center_axis',(0.,-1.,0.));
#97=DIRECTION('ref_axis',(1.,0.,0.));
#98=DIRECTION('center_axis',(0.,-1.,0.));
#99=DIRECTION('ref_axis',(1.,0.,0.));
#100=DIRECTION('center_axis',(0.,-1.,0.));
#101=DIRECTION('ref_axis',(0.,0.,-1.));
#102=DIRECTION('center_axis',(0.,-1.,0.));
#103=DIRECTION('ref_axis',(1.,0.,0.));
#104=DIRECTION('center_axis',(0.,-1.,0.));
#105=DIRECTION('ref_axis',(1.,0.,0.));
#106=DIRECTION('center_axis',(0.,-1.,0.));
#107=DIRECTION('ref_axis',(1.,0.,0.));
#108=DIRECTION('center_axis',(0.,-1.,0.));
#109=DIRECTION('ref_axis',(0.,0.,-1.));
#110=CARTESIAN_POINT('',(0.,0.,0.));
#111=CARTESIAN_POINT('Origin',(2.63314554501871,21.,0.));
#112=CARTESIAN_POINT('',(5.26629109003742,21.,0.));
#113=CARTESIAN_POINT('Origin',(0.,21.,0.));
#114=CARTESIAN_POINT('Origin',(0.,14.,0.));
#115=CARTESIAN_POINT('',(6.,7.,0.));
#116=CARTESIAN_POINT('Origin',(0.,7.,0.));
#117=CARTESIAN_POINT('Origin',(0.,6.5,0.));
#118=CARTESIAN_POINT('',(6.,6.,0.));
#119=CARTESIAN_POINT('Origin',(0.,6.,0.));
#120=CARTESIAN_POINT('Origin',(5.4325,6.,0.));
#121=CARTESIAN_POINT('',(4.865,6.,0.));
#122=CARTESIAN_POINT('Origin',(0.,6.,0.));
#123=CARTESIAN_POINT('Origin',(0.,3.,0.));
#124=CARTESIAN_POINT('',(4.865,0.,0.));
#125=CARTESIAN_POINT('Origin',(0.,0.,0.));
#126=CARTESIAN_POINT('Origin',(2.4325,0.,0.));
#127=UNCERTAINTY_MEASURE_WITH_UNIT(LENGTH_MEASURE(0.01),#129,
'DISTANCE_ACCURACY_VALUE',
'Maximum model space distance between geometric entities at asserted c
onnectivities');
#128=(
GEOMETRIC_REPRESENTATION_CONTEXT(3)
GLOBAL_UNCERTAINTY_ASSIGNED_CONTEXT((#127))
GLOBAL_UNIT_ASSIGNED_CONTEXT((#129,#132,#130))
REPRESENTATION_CONTEXT('','3D')
);
#129=(
LENGTH_UNIT()
NAMED_UNIT(*)
SI_UNIT(.MILLI.,.METRE.)
);
#130=(
NAMED_UNIT(*)
SI_UNIT($,.STERADIAN.)
SOLID_ANGLE_UNIT()
);
#131=DIMENSIONAL_EXPONENTS(0.,0.,0.,0.,0.,0.,0.);
#132=(
CONVERSION_BASED_UNIT('degree',#134)
NAMED_UNIT(#131)
PLANE_ANGLE_UNIT()
);
#133=(
NAMED_UNIT(*)
PLANE_ANGLE_UNIT()
SI_UNIT($,.RADIAN.)
);
#134=PLANE_ANGLE_MEASURE_WITH_UNIT(PLANE_ANGLE_MEASURE(0.01745329252),#133);
#135=SHAPE_DEFINITION_REPRESENTATION(#136,#137);
#136=PRODUCT_DEFINITION_SHAPE('',$,#139);
#137=SHAPE_REPRESENTATION('',(#74),#128);
#138=PRODUCT_DEFINITION_CONTEXT('3D Mechanical Parts',#142,'design');
#139=PRODUCT_DEFINITION('6_06_18','6_06_18',#140,#138);
#140=PRODUCT_DEFINITION_FORMATION('',$,#144);
#141=APPLICATION_PROTOCOL_DEFINITION('international standard',
'automotive_design',2009,#142);
#142=APPLICATION_CONTEXT(
'Core Data for Automotive Mechanical Design Process');
#143=PRODUCT_CONTEXT('3D Mechanical Parts',#142,'mechanical');
#144=PRODUCT('6_06_18','6_06_18',$,(#143));
#145=PRESENTATION_STYLE_ASSIGNMENT((#147));
#146=PRESENTATION_STYLE_ASSIGNMENT((#148));
#147=SURFACE_STYLE_USAGE(.BOTH.,#149);
#148=SURFACE_STYLE_USAGE(.BOTH.,#150);
#149=SURFACE_SIDE_STYLE($,(#151));
#150=SURFACE_SIDE_STYLE($,(#152));
#151=SURFACE_STYLE_FILL_AREA(#153);
#152=SURFACE_STYLE_FILL_AREA(#154);
#153=FILL_AREA_STYLE($,(#155));
#154=FILL_AREA_STYLE($,(#156));
#155=FILL_AREA_STYLE_COLOUR($,#157);
#156=FILL_AREA_STYLE_COLOUR($,#158);
#157=COLOUR_RGB('',0.776470588235294,0.564705882352941,0.109803921568627);
#158=COLOUR_RGB('',0.788235294117647,0.588235294117647,0.462745098039216);
ENDSEC;
END-ISO-10303-21;
