ISO-10303-21;
HEADER;
/* Generated by software containing ST-Developer
 * from STEP Tools, Inc. (www.steptools.com) 
 */

FILE_DESCRIPTION(
/* description */ ('SILENZIATORE BRONZO 3/8"'),
/* implementation_level */ '2;1');

FILE_NAME(
/* name */ 'C:\\Users\\maniean1\\Desktop\\6_06_38.stp',
/* time_stamp */ '2015-02-27T08:09:14+01:00',
/* author */ ('maniean1'),
/* organization */ ('Pneumax S.p.A.'),
/* preprocessor_version */ 'ST-DEVELOPER v15.2',
/* originating_system */ 'Autodesk Inventor 2014',
/* authorisation */ '');

FILE_SCHEMA (('AUTOMOTIVE_DESIGN { 1 0 10303 214 3 1 1 }'));
ENDSEC;

DATA;
#10=MECHANICAL_DESIGN_GEOMETRIC_PRESENTATION_REPRESENTATION('',(#64,#65,
#66),#131);
#11=SHAPE_REPRESENTATION_RELATIONSHIP('SRR','None',#140,#12);
#12=ADVANCED_BREP_SHAPE_REPRESENTATION($,(#74),#130);
#13=CYLINDRICAL_SURFACE('',#80,9.5);
#14=CYLINDRICAL_SURFACE('',#84,8.33);
#15=FACE_BOUND('',#28,.T.);
#16=FACE_BOUND('',#30,.T.);
#17=FACE_BOUND('',#31,.T.);
#18=FACE_BOUND('',#32,.T.);
#19=FACE_BOUND('',#34,.T.);
#20=CONICAL_SURFACE('',#78,8.79249497967893,3.00000000000003);
#21=FACE_OUTER_BOUND('',#26,.T.);
#22=FACE_OUTER_BOUND('',#27,.T.);
#23=FACE_OUTER_BOUND('',#29,.T.);
#24=FACE_OUTER_BOUND('',#33,.T.);
#25=FACE_OUTER_BOUND('',#35,.T.);
#26=EDGE_LOOP('',(#51));
#27=EDGE_LOOP('',(#52));
#28=EDGE_LOOP('',(#53));
#29=EDGE_LOOP('',(#54));
#30=EDGE_LOOP('',(#55));
#31=EDGE_LOOP('',(#56));
#32=EDGE_LOOP('',(#57));
#33=EDGE_LOOP('',(#58));
#34=EDGE_LOOP('',(#59));
#35=EDGE_LOOP('',(#60));
#36=CIRCLE('',#77,8.08498995935787);
#37=CIRCLE('',#79,9.5);
#38=CIRCLE('',#81,9.5);
#39=CIRCLE('',#83,8.33);
#40=CIRCLE('',#85,8.33);
#41=VERTEX_POINT('',#113);
#42=VERTEX_POINT('',#116);
#43=VERTEX_POINT('',#119);
#44=VERTEX_POINT('',#122);
#45=VERTEX_POINT('',#125);
#46=EDGE_CURVE('',#41,#41,#36,.T.);
#47=EDGE_CURVE('',#42,#42,#37,.T.);
#48=EDGE_CURVE('',#43,#43,#38,.T.);
#49=EDGE_CURVE('',#44,#44,#39,.T.);
#50=EDGE_CURVE('',#45,#45,#40,.T.);
#51=ORIENTED_EDGE('',*,*,#46,.F.);
#52=ORIENTED_EDGE('',*,*,#47,.F.);
#53=ORIENTED_EDGE('',*,*,#46,.T.);
#54=ORIENTED_EDGE('',*,*,#48,.F.);
#55=ORIENTED_EDGE('',*,*,#47,.T.);
#56=ORIENTED_EDGE('',*,*,#49,.F.);
#57=ORIENTED_EDGE('',*,*,#48,.T.);
#58=ORIENTED_EDGE('',*,*,#50,.F.);
#59=ORIENTED_EDGE('',*,*,#49,.T.);
#60=ORIENTED_EDGE('',*,*,#50,.T.);
#61=PLANE('',#76);
#62=PLANE('',#82);
#63=PLANE('',#86);
#64=STYLED_ITEM('',(#150),#67);
#65=STYLED_ITEM('',(#150),#68);
#66=STYLED_ITEM('',(#149),#74);
#67=ADVANCED_FACE('',(#21),#61,.T.);
#68=ADVANCED_FACE('',(#22,#15),#20,.T.);
#69=ADVANCED_FACE('',(#23,#16),#13,.T.);
#70=ADVANCED_FACE('',(#17,#18),#62,.T.);
#71=ADVANCED_FACE('',(#24,#19),#14,.T.);
#72=ADVANCED_FACE('',(#25),#63,.T.);
#73=CLOSED_SHELL('',(#67,#68,#69,#70,#71,#72));
#74=MANIFOLD_SOLID_BREP('Solido1',#73);
#75=AXIS2_PLACEMENT_3D('placement',#111,#87,#88);
#76=AXIS2_PLACEMENT_3D('',#112,#89,#90);
#77=AXIS2_PLACEMENT_3D('',#114,#91,#92);
#78=AXIS2_PLACEMENT_3D('',#115,#93,#94);
#79=AXIS2_PLACEMENT_3D('',#117,#95,#96);
#80=AXIS2_PLACEMENT_3D('',#118,#97,#98);
#81=AXIS2_PLACEMENT_3D('',#120,#99,#100);
#82=AXIS2_PLACEMENT_3D('',#121,#101,#102);
#83=AXIS2_PLACEMENT_3D('',#123,#103,#104);
#84=AXIS2_PLACEMENT_3D('',#124,#105,#106);
#85=AXIS2_PLACEMENT_3D('',#126,#107,#108);
#86=AXIS2_PLACEMENT_3D('',#127,#109,#110);
#87=DIRECTION('axis',(0.,0.,1.));
#88=DIRECTION('refdir',(1.,0.,0.));
#89=DIRECTION('center_axis',(0.,1.,0.));
#90=DIRECTION('ref_axis',(0.,0.,1.));
#91=DIRECTION('center_axis',(0.,-1.,0.));
#92=DIRECTION('ref_axis',(1.,0.,0.));
#93=DIRECTION('center_axis',(0.,-1.,0.));
#94=DIRECTION('ref_axis',(1.,0.,0.));
#95=DIRECTION('center_axis',(0.,-1.,0.));
#96=DIRECTION('ref_axis',(1.,0.,0.));
#97=DIRECTION('center_axis',(0.,-1.,0.));
#98=DIRECTION('ref_axis',(1.,0.,0.));
#99=DIRECTION('center_axis',(0.,-1.,0.));
#100=DIRECTION('ref_axis',(1.,0.,0.));
#101=DIRECTION('center_axis',(0.,-1.,0.));
#102=DIRECTION('ref_axis',(0.,0.,-1.));
#103=DIRECTION('center_axis',(0.,-1.,0.));
#104=DIRECTION('ref_axis',(1.,0.,0.));
#105=DIRECTION('center_axis',(0.,-1.,0.));
#106=DIRECTION('ref_axis',(1.,0.,0.));
#107=DIRECTION('center_axis',(0.,-1.,0.));
#108=DIRECTION('ref_axis',(1.,0.,0.));
#109=DIRECTION('center_axis',(0.,-1.,0.));
#110=DIRECTION('ref_axis',(0.,0.,-1.));
#111=CARTESIAN_POINT('',(0.,0.,0.));
#112=CARTESIAN_POINT('Origin',(4.04249497967894,37.,0.));
#113=CARTESIAN_POINT('',(8.08498995935787,37.,0.));
#114=CARTESIAN_POINT('Origin',(0.,37.,0.));
#115=CARTESIAN_POINT('Origin',(0.,23.5,0.));
#116=CARTESIAN_POINT('',(9.5,10.,0.));
#117=CARTESIAN_POINT('Origin',(0.,10.,0.));
#118=CARTESIAN_POINT('Origin',(0.,9.5,0.));
#119=CARTESIAN_POINT('',(9.5,9.,0.));
#120=CARTESIAN_POINT('Origin',(0.,9.,0.));
#121=CARTESIAN_POINT('Origin',(8.915,9.,0.));
#122=CARTESIAN_POINT('',(8.33,9.,0.));
#123=CARTESIAN_POINT('Origin',(0.,9.,0.));
#124=CARTESIAN_POINT('Origin',(0.,4.5,0.));
#125=CARTESIAN_POINT('',(8.33,0.,0.));
#126=CARTESIAN_POINT('Origin',(0.,0.,0.));
#127=CARTESIAN_POINT('Origin',(4.165,0.,0.));
#128=UNCERTAINTY_MEASURE_WITH_UNIT(LENGTH_MEASURE(0.01),#132,
'DISTANCE_ACCURACY_VALUE',
'Maximum model space distance between geometric entities at asserted c
onnectivities');
#129=UNCERTAINTY_MEASURE_WITH_UNIT(LENGTH_MEASURE(1.E-006),#132,
'DISTANCE_ACCURACY_VALUE',
'Maximum model space distance between geometric entities at asserted c
onnectivities');
#130=(
GEOMETRIC_REPRESENTATION_CONTEXT(3)
GLOBAL_UNCERTAINTY_ASSIGNED_CONTEXT((#128))
GLOBAL_UNIT_ASSIGNED_CONTEXT((#132,#135,#133))
REPRESENTATION_CONTEXT('','3D')
);
#131=(
GEOMETRIC_REPRESENTATION_CONTEXT(3)
GLOBAL_UNCERTAINTY_ASSIGNED_CONTEXT((#129))
GLOBAL_UNIT_ASSIGNED_CONTEXT((#132,#135,#133))
REPRESENTATION_CONTEXT('','3D')
);
#132=(
LENGTH_UNIT()
NAMED_UNIT(*)
SI_UNIT(.MILLI.,.METRE.)
);
#133=(
NAMED_UNIT(*)
SI_UNIT($,.STERADIAN.)
SOLID_ANGLE_UNIT()
);
#134=DIMENSIONAL_EXPONENTS(0.,0.,0.,0.,0.,0.,0.);
#135=(
CONVERSION_BASED_UNIT('degree',#137)
NAMED_UNIT(#134)
PLANE_ANGLE_UNIT()
);
#136=(
NAMED_UNIT(*)
PLANE_ANGLE_UNIT()
SI_UNIT($,.RADIAN.)
);
#137=PLANE_ANGLE_MEASURE_WITH_UNIT(PLANE_ANGLE_MEASURE(0.01745329252),#136);
#138=SHAPE_DEFINITION_REPRESENTATION(#139,#140);
#139=PRODUCT_DEFINITION_SHAPE('',$,#142);
#140=SHAPE_REPRESENTATION('',(#75),#130);
#141=PRODUCT_DEFINITION_CONTEXT('part definition',#146,'design');
#142=PRODUCT_DEFINITION('6_06_38','6_06_38',#143,#141);
#143=PRODUCT_DEFINITION_FORMATION('',$,#148);
#144=PRODUCT_RELATED_PRODUCT_CATEGORY('6_06_38','6_06_38',(#148));
#145=APPLICATION_PROTOCOL_DEFINITION('international standard',
'automotive_design',2009,#146);
#146=APPLICATION_CONTEXT(
'Core Data for Automotive Mechanical Design Process');
#147=PRODUCT_CONTEXT('part definition',#146,'mechanical');
#148=PRODUCT('6_06_38','6_06_38',$,(#147));
#149=PRESENTATION_STYLE_ASSIGNMENT((#151));
#150=PRESENTATION_STYLE_ASSIGNMENT((#152));
#151=SURFACE_STYLE_USAGE(.BOTH.,#153);
#152=SURFACE_STYLE_USAGE(.BOTH.,#154);
#153=SURFACE_SIDE_STYLE($,(#155));
#154=SURFACE_SIDE_STYLE($,(#156));
#155=SURFACE_STYLE_FILL_AREA(#157);
#156=SURFACE_STYLE_FILL_AREA(#158);
#157=FILL_AREA_STYLE($,(#159));
#158=FILL_AREA_STYLE($,(#160));
#159=FILL_AREA_STYLE_COLOUR($,#161);
#160=FILL_AREA_STYLE_COLOUR($,#162);
#161=COLOUR_RGB('',0.776470588235294,0.564705882352941,0.109803921568627);
#162=COLOUR_RGB('',0.788235294117647,0.588235294117647,0.462745098039216);
ENDSEC;
END-ISO-10303-21;
