ISO-10303-21;
HEADER;
/* Generated by software containing ST-Developer
 * from STEP Tools, Inc. (www.steptools.com) 
 */
/* OPTION: strings as raw bytes, not using required /X/ escapes */

FILE_DESCRIPTION(
/* description */ ('Unknown'),
/* implementation_level */ '2;1');

FILE_NAME(
/* name */ 'SPL.1',
/* time_stamp */ '2020-06-02T08:12:39-04:00',
/* author */ ('Unknown'),
/* organization */ ('Unknown'),
/* preprocessor_version */ 'ST-DEVELOPER v16.7',
/* originating_system */ 'Solid Edge',
/* authorisation */ 'Unknown');

FILE_SCHEMA (('AUTOMOTIVE_DESIGN {1 0 10303 214 3 1 1}'));
ENDSEC;

DATA;
#10=PROPERTY_DEFINITION_REPRESENTATION(#14,#12);
#11=PROPERTY_DEFINITION_REPRESENTATION(#15,#13);
#12=REPRESENTATION('',(#16),#309);
#13=REPRESENTATION('',(#17),#309);
#14=PROPERTY_DEFINITION('pmi validation property','',#314);
#15=PROPERTY_DEFINITION('pmi validation property','',#314);
#16=VALUE_REPRESENTATION_ITEM('number of annotations',COUNT_MEASURE(0.));
#17=VALUE_REPRESENTATION_ITEM('number of views',COUNT_MEASURE(0.));
#18=SHAPE_REPRESENTATION_RELATIONSHIP('','',#205,#19);
#19=ADVANCED_BREP_SHAPE_REPRESENTATION('',(#203),#309);
#20=PLANE('',#213);
#21=PLANE('',#217);
#22=PLANE('',#222);
#23=PLANE('',#223);
#24=PLANE('',#226);
#25=CYLINDRICAL_SURFACE('',#211,23.5);
#26=CYLINDRICAL_SURFACE('',#215,16.85);
#27=CYLINDRICAL_SURFACE('',#219,99.9999999999974);
#28=CYLINDRICAL_SURFACE('',#224,9.75);
#29=B_SPLINE_CURVE_WITH_KNOTS('',3,(#273,#274,#275,#276),.UNSPECIFIED.,
 .F.,.F.,(4,4),(1.99999999999896E-7,0.0023002),.UNSPECIFIED.);
#30=B_SPLINE_CURVE_WITH_KNOTS('',3,(#281,#282,#283,#284),.UNSPECIFIED.,
 .F.,.F.,(4,4),(1.99999999999896E-7,0.0023002),.UNSPECIFIED.);
#31=ORIENTED_EDGE('',*,*,#55,.F.);
#32=ORIENTED_EDGE('',*,*,#56,.T.);
#33=ORIENTED_EDGE('',*,*,#57,.F.);
#34=ORIENTED_EDGE('',*,*,#58,.T.);
#35=ORIENTED_EDGE('',*,*,#59,.T.);
#36=ORIENTED_EDGE('',*,*,#60,.T.);
#37=ORIENTED_EDGE('',*,*,#55,.T.);
#38=ORIENTED_EDGE('',*,*,#61,.T.);
#39=ORIENTED_EDGE('',*,*,#60,.F.);
#40=ORIENTED_EDGE('',*,*,#62,.T.);
#41=ORIENTED_EDGE('',*,*,#61,.F.);
#42=ORIENTED_EDGE('',*,*,#63,.T.);
#43=ORIENTED_EDGE('',*,*,#62,.F.);
#44=ORIENTED_EDGE('',*,*,#64,.T.);
#45=ORIENTED_EDGE('',*,*,#56,.F.);
#46=ORIENTED_EDGE('',*,*,#65,.F.);
#47=ORIENTED_EDGE('',*,*,#58,.F.);
#48=ORIENTED_EDGE('',*,*,#57,.T.);
#49=ORIENTED_EDGE('',*,*,#64,.F.);
#50=ORIENTED_EDGE('',*,*,#65,.T.);
#51=ORIENTED_EDGE('',*,*,#59,.F.);
#52=ORIENTED_EDGE('',*,*,#66,.T.);
#53=ORIENTED_EDGE('',*,*,#63,.F.);
#54=ORIENTED_EDGE('',*,*,#66,.F.);
#55=EDGE_CURVE('',#67,#67,#77,.T.);
#56=EDGE_CURVE('',#68,#69,#29,.T.);
#57=EDGE_CURVE('',#70,#69,#78,.F.);
#58=EDGE_CURVE('',#70,#71,#30,.T.);
#59=EDGE_CURVE('',#71,#68,#79,.F.);
#60=EDGE_CURVE('',#72,#72,#80,.T.);
#61=EDGE_CURVE('',#73,#73,#81,.T.);
#62=EDGE_CURVE('',#74,#74,#82,.T.);
#63=EDGE_CURVE('',#75,#75,#83,.T.);
#64=EDGE_CURVE('',#70,#69,#84,.T.);
#65=EDGE_CURVE('',#71,#68,#85,.T.);
#66=EDGE_CURVE('',#76,#76,#86,.T.);
#67=VERTEX_POINT('',#272);
#68=VERTEX_POINT('',#277);
#69=VERTEX_POINT('',#278);
#70=VERTEX_POINT('',#280);
#71=VERTEX_POINT('',#285);
#72=VERTEX_POINT('',#289);
#73=VERTEX_POINT('',#292);
#74=VERTEX_POINT('',#295);
#75=VERTEX_POINT('',#298);
#76=VERTEX_POINT('',#306);
#77=CIRCLE('',#208,23.5);
#78=CIRCLE('',#209,38.4984528148949);
#79=CIRCLE('',#210,38.4984528148949);
#80=CIRCLE('',#212,23.5);
#81=CIRCLE('',#214,16.85);
#82=CIRCLE('',#216,16.85);
#83=CIRCLE('',#218,9.75);
#84=CIRCLE('',#220,100.);
#85=CIRCLE('',#221,99.9999999999974);
#86=CIRCLE('',#225,9.75);
#87=EDGE_LOOP('',(#31));
#88=EDGE_LOOP('',(#32,#33,#34,#35));
#89=EDGE_LOOP('',(#36));
#90=EDGE_LOOP('',(#37));
#91=EDGE_LOOP('',(#38));
#92=EDGE_LOOP('',(#39));
#93=EDGE_LOOP('',(#40));
#94=EDGE_LOOP('',(#41));
#95=EDGE_LOOP('',(#42));
#96=EDGE_LOOP('',(#43));
#97=EDGE_LOOP('',(#44,#45,#46,#47));
#98=EDGE_LOOP('',(#48,#49));
#99=EDGE_LOOP('',(#50,#51));
#100=EDGE_LOOP('',(#52));
#101=EDGE_LOOP('',(#53));
#102=EDGE_LOOP('',(#54));
#103=FACE_BOUND('',#87,.T.);
#104=FACE_BOUND('',#88,.T.);
#105=FACE_BOUND('',#89,.T.);
#106=FACE_BOUND('',#90,.T.);
#107=FACE_BOUND('',#91,.T.);
#108=FACE_BOUND('',#92,.T.);
#109=FACE_BOUND('',#93,.T.);
#110=FACE_BOUND('',#94,.T.);
#111=FACE_BOUND('',#95,.T.);
#112=FACE_BOUND('',#96,.T.);
#113=FACE_BOUND('',#97,.T.);
#114=FACE_BOUND('',#98,.T.);
#115=FACE_BOUND('',#99,.T.);
#116=FACE_BOUND('',#100,.T.);
#117=FACE_BOUND('',#101,.T.);
#118=FACE_BOUND('',#102,.T.);
#119=SPHERICAL_SURFACE('',#207,38.5156250000008);
#120=STYLED_ITEM('',(#130),#192);
#121=STYLED_ITEM('',(#131),#193);
#122=STYLED_ITEM('',(#132),#194);
#123=STYLED_ITEM('',(#133),#195);
#124=STYLED_ITEM('',(#134),#196);
#125=STYLED_ITEM('',(#135),#197);
#126=STYLED_ITEM('',(#136),#198);
#127=STYLED_ITEM('',(#137),#199);
#128=STYLED_ITEM('',(#138),#200);
#129=STYLED_ITEM('',(#139),#201);
#130=PRESENTATION_STYLE_ASSIGNMENT((#140));
#131=PRESENTATION_STYLE_ASSIGNMENT((#141));
#132=PRESENTATION_STYLE_ASSIGNMENT((#142));
#133=PRESENTATION_STYLE_ASSIGNMENT((#143));
#134=PRESENTATION_STYLE_ASSIGNMENT((#144));
#135=PRESENTATION_STYLE_ASSIGNMENT((#145));
#136=PRESENTATION_STYLE_ASSIGNMENT((#146));
#137=PRESENTATION_STYLE_ASSIGNMENT((#147));
#138=PRESENTATION_STYLE_ASSIGNMENT((#148));
#139=PRESENTATION_STYLE_ASSIGNMENT((#149));
#140=SURFACE_STYLE_USAGE(.BOTH.,#150);
#141=SURFACE_STYLE_USAGE(.BOTH.,#151);
#142=SURFACE_STYLE_USAGE(.BOTH.,#152);
#143=SURFACE_STYLE_USAGE(.BOTH.,#153);
#144=SURFACE_STYLE_USAGE(.BOTH.,#154);
#145=SURFACE_STYLE_USAGE(.BOTH.,#155);
#146=SURFACE_STYLE_USAGE(.BOTH.,#156);
#147=SURFACE_STYLE_USAGE(.BOTH.,#157);
#148=SURFACE_STYLE_USAGE(.BOTH.,#158);
#149=SURFACE_STYLE_USAGE(.BOTH.,#159);
#150=SURFACE_SIDE_STYLE('',(#160));
#151=SURFACE_SIDE_STYLE('',(#161));
#152=SURFACE_SIDE_STYLE('',(#162));
#153=SURFACE_SIDE_STYLE('',(#163));
#154=SURFACE_SIDE_STYLE('',(#164));
#155=SURFACE_SIDE_STYLE('',(#165));
#156=SURFACE_SIDE_STYLE('',(#166));
#157=SURFACE_SIDE_STYLE('',(#167));
#158=SURFACE_SIDE_STYLE('',(#168));
#159=SURFACE_SIDE_STYLE('',(#169));
#160=SURFACE_STYLE_FILL_AREA(#170);
#161=SURFACE_STYLE_FILL_AREA(#171);
#162=SURFACE_STYLE_FILL_AREA(#172);
#163=SURFACE_STYLE_FILL_AREA(#173);
#164=SURFACE_STYLE_FILL_AREA(#174);
#165=SURFACE_STYLE_FILL_AREA(#175);
#166=SURFACE_STYLE_FILL_AREA(#176);
#167=SURFACE_STYLE_FILL_AREA(#177);
#168=SURFACE_STYLE_FILL_AREA(#178);
#169=SURFACE_STYLE_FILL_AREA(#179);
#170=FILL_AREA_STYLE('',(#180));
#171=FILL_AREA_STYLE('',(#181));
#172=FILL_AREA_STYLE('',(#182));
#173=FILL_AREA_STYLE('',(#183));
#174=FILL_AREA_STYLE('',(#184));
#175=FILL_AREA_STYLE('',(#185));
#176=FILL_AREA_STYLE('',(#186));
#177=FILL_AREA_STYLE('',(#187));
#178=FILL_AREA_STYLE('',(#188));
#179=FILL_AREA_STYLE('',(#189));
#180=FILL_AREA_STYLE_COLOUR('',#190);
#181=FILL_AREA_STYLE_COLOUR('',#190);
#182=FILL_AREA_STYLE_COLOUR('',#190);
#183=FILL_AREA_STYLE_COLOUR('',#191);
#184=FILL_AREA_STYLE_COLOUR('',#190);
#185=FILL_AREA_STYLE_COLOUR('',#190);
#186=FILL_AREA_STYLE_COLOUR('',#190);
#187=FILL_AREA_STYLE_COLOUR('',#190);
#188=FILL_AREA_STYLE_COLOUR('',#190);
#189=FILL_AREA_STYLE_COLOUR('',#190);
#190=COLOUR_RGB('',0.506983280181885,0.531564235687256,0.550000011920929);
#191=COLOUR_RGB('',0.1875,0.75,0.581249892711639);
#192=ADVANCED_FACE('',(#103,#104),#119,.T.);
#193=ADVANCED_FACE('',(#105,#106),#25,.T.);
#194=ADVANCED_FACE('',(#107,#108),#20,.F.);
#195=ADVANCED_FACE('',(#109,#110),#26,.T.);
#196=ADVANCED_FACE('',(#111,#112),#21,.F.);
#197=ADVANCED_FACE('',(#113),#27,.F.);
#198=ADVANCED_FACE('',(#114),#22,.F.);
#199=ADVANCED_FACE('',(#115),#23,.T.);
#200=ADVANCED_FACE('',(#116,#117),#28,.F.);
#201=ADVANCED_FACE('',(#118),#24,.F.);
#202=CLOSED_SHELL('',(#192,#193,#194,#195,#196,#197,#198,#199,#200,#201));
#203=MANIFOLD_SOLID_BREP('',#202);
#204=SHAPE_DEFINITION_REPRESENTATION(#314,#205);
#205=SHAPE_REPRESENTATION('SPL.1',(#206),#309);
#206=AXIS2_PLACEMENT_3D('',#269,#227,#228);
#207=AXIS2_PLACEMENT_3D('',#270,#229,#230);
#208=AXIS2_PLACEMENT_3D('',#271,#231,#232);
#209=AXIS2_PLACEMENT_3D('',#279,#233,#234);
#210=AXIS2_PLACEMENT_3D('',#286,#235,#236);
#211=AXIS2_PLACEMENT_3D('',#287,#237,#238);
#212=AXIS2_PLACEMENT_3D('',#288,#239,#240);
#213=AXIS2_PLACEMENT_3D('',#290,#241,#242);
#214=AXIS2_PLACEMENT_3D('',#291,#243,#244);
#215=AXIS2_PLACEMENT_3D('',#293,#245,#246);
#216=AXIS2_PLACEMENT_3D('',#294,#247,#248);
#217=AXIS2_PLACEMENT_3D('',#296,#249,#250);
#218=AXIS2_PLACEMENT_3D('',#297,#251,#252);
#219=AXIS2_PLACEMENT_3D('',#299,#253,#254);
#220=AXIS2_PLACEMENT_3D('',#300,#255,#256);
#221=AXIS2_PLACEMENT_3D('',#301,#257,#258);
#222=AXIS2_PLACEMENT_3D('',#302,#259,#260);
#223=AXIS2_PLACEMENT_3D('',#303,#261,#262);
#224=AXIS2_PLACEMENT_3D('',#304,#263,#264);
#225=AXIS2_PLACEMENT_3D('',#305,#265,#266);
#226=AXIS2_PLACEMENT_3D('',#307,#267,#268);
#227=DIRECTION('',(0.,0.,1.));
#228=DIRECTION('',(1.,0.,0.));
#229=DIRECTION('',(0.,1.,0.));
#230=DIRECTION('',(-1.,0.,0.));
#231=DIRECTION('',(0.,-1.,0.));
#232=DIRECTION('',(-1.,0.,0.));
#233=DIRECTION('',(0.,0.,1.));
#234=DIRECTION('',(1.,0.,0.));
#235=DIRECTION('',(0.,0.,1.));
#236=DIRECTION('',(1.,0.,0.));
#237=DIRECTION('',(0.,-1.,0.));
#238=DIRECTION('',(0.,0.,-1.));
#239=DIRECTION('',(0.,1.,0.));
#240=DIRECTION('',(1.,0.,0.));
#241=DIRECTION('',(0.,1.,0.));
#242=DIRECTION('',(0.,0.,1.));
#243=DIRECTION('',(0.,1.,0.));
#244=DIRECTION('',(0.,0.,1.));
#245=DIRECTION('',(0.,1.,0.));
#246=DIRECTION('',(0.,0.,1.));
#247=DIRECTION('',(0.,1.,0.));
#248=DIRECTION('',(0.,0.,1.));
#249=DIRECTION('',(0.,1.,0.));
#250=DIRECTION('',(0.,0.,1.));
#251=DIRECTION('',(0.,1.,0.));
#252=DIRECTION('',(1.,0.,0.));
#253=DIRECTION('',(0.,0.,-1.));
#254=DIRECTION('',(-1.,0.,0.));
#255=DIRECTION('',(0.,0.,1.));
#256=DIRECTION('',(1.,0.,0.));
#257=DIRECTION('',(0.,0.,1.));
#258=DIRECTION('',(1.,0.,0.));
#259=DIRECTION('',(0.,0.,1.));
#260=DIRECTION('',(1.,0.,0.));
#261=DIRECTION('',(0.,0.,1.));
#262=DIRECTION('',(1.,0.,0.));
#263=DIRECTION('',(0.,-1.,0.));
#264=DIRECTION('',(0.,0.,-1.));
#265=DIRECTION('',(0.,1.,0.));
#266=DIRECTION('',(1.,0.,0.));
#267=DIRECTION('',(0.,1.,0.));
#268=DIRECTION('',(0.,0.,1.));
#269=CARTESIAN_POINT('',(0.,0.,0.));
#270=CARTESIAN_POINT('',(0.,57.484374999999,0.));
#271=CARTESIAN_POINT('',(0.,88.,0.));
#272=CARTESIAN_POINT('',(-23.5,88.,0.));
#273=CARTESIAN_POINT('',(16.3386688650259,92.3437893504972,-1.15));
#274=CARTESIAN_POINT('',(16.378541972919,92.3503928223131,-0.383333333333333));
#275=CARTESIAN_POINT('',(16.378541972919,92.3503928223131,0.383333333333334));
#276=CARTESIAN_POINT('',(16.3386688650259,92.3437893504972,1.15));
#277=CARTESIAN_POINT('',(16.338668865026,92.3437893504972,-1.15));
#278=CARTESIAN_POINT('',(16.338668865026,92.3437893504972,1.15));
#279=CARTESIAN_POINT('',(0.,57.484374999999,1.15));
#280=CARTESIAN_POINT('',(-16.3386688650259,92.3437893504972,1.15));
#281=CARTESIAN_POINT('',(-16.3386688650258,92.3437893504972,1.15));
#282=CARTESIAN_POINT('',(-16.378541972919,92.3503928223131,0.383333333333334));
#283=CARTESIAN_POINT('',(-16.378541972919,92.3503928223131,-0.383333333333334));
#284=CARTESIAN_POINT('',(-16.3386688650258,92.3437893504972,-1.15));
#285=CARTESIAN_POINT('',(-16.3386688650259,92.3437893504972,-1.15));
#286=CARTESIAN_POINT('',(0.,57.484374999999,-1.15));
#287=CARTESIAN_POINT('',(0.,85.,0.));
#288=CARTESIAN_POINT('',(0.,0.,0.));
#289=CARTESIAN_POINT('',(23.5,0.,0.));
#290=CARTESIAN_POINT('',(0.,0.,0.));
#291=CARTESIAN_POINT('',(0.,0.,0.));
#292=CARTESIAN_POINT('',(0.,0.,16.85));
#293=CARTESIAN_POINT('',(0.,-16.,0.));
#294=CARTESIAN_POINT('',(0.,-16.,0.));
#295=CARTESIAN_POINT('',(0.,-16.,16.85));
#296=CARTESIAN_POINT('',(0.,-16.,0.));
#297=CARTESIAN_POINT('',(0.,-16.,0.));
#298=CARTESIAN_POINT('',(9.75,-16.,0.));
#299=CARTESIAN_POINT('',(1.0842021724855E-13,190.999999999997,1.15));
#300=CARTESIAN_POINT('',(3.55338922815109E-14,191.,1.15));
#301=CARTESIAN_POINT('',(1.0842021724855E-13,190.999999999997,-1.15));
#302=CARTESIAN_POINT('',(1.2562775712825E-14,124.242187499999,1.15));
#303=CARTESIAN_POINT('',(1.2562775712825E-14,124.242187499999,-1.15));
#304=CARTESIAN_POINT('',(0.,30.,0.));
#305=CARTESIAN_POINT('',(0.,30.,0.));
#306=CARTESIAN_POINT('',(9.75,30.,0.));
#307=CARTESIAN_POINT('',(0.,30.,0.));
#308=MECHANICAL_DESIGN_GEOMETRIC_PRESENTATION_REPRESENTATION('',(#120,#121,
#122,#123,#124,#125,#126,#127,#128,#129),#309);
#309=(
GEOMETRIC_REPRESENTATION_CONTEXT(3)
GLOBAL_UNCERTAINTY_ASSIGNED_CONTEXT((#310))
GLOBAL_UNIT_ASSIGNED_CONTEXT((#313,#312,#311))
REPRESENTATION_CONTEXT('SPL.1','TOP_LEVEL_ASSEMBLY_PART')
);
#310=UNCERTAINTY_MEASURE_WITH_UNIT(LENGTH_MEASURE(0.005),#313,
'DISTANCE_ACCURACY_VALUE','Maximum Tolerance applied to model');
#311=(
NAMED_UNIT(*)
SI_UNIT($,.STERADIAN.)
SOLID_ANGLE_UNIT()
);
#312=(
NAMED_UNIT(*)
PLANE_ANGLE_UNIT()
SI_UNIT($,.RADIAN.)
);
#313=(
LENGTH_UNIT()
NAMED_UNIT(*)
SI_UNIT(.MILLI.,.METRE.)
);
#314=PRODUCT_DEFINITION_SHAPE('','',#315);
#315=PRODUCT_DEFINITION('','',#317,#316);
#316=PRODUCT_DEFINITION_CONTEXT('',#323,'design');
#317=PRODUCT_DEFINITION_FORMATION_WITH_SPECIFIED_SOURCE('','',#319,
 .NOT_KNOWN.);
#318=PRODUCT_RELATED_PRODUCT_CATEGORY('','',(#319));
#319=PRODUCT('SPL.1','SPL.1','SPL.1',(#321));
#320=PRODUCT_CATEGORY('','');
#321=PRODUCT_CONTEXT('',#323,'mechanical');
#322=APPLICATION_PROTOCOL_DEFINITION('international standard',
'automotive_design',2010,#323);
#323=APPLICATION_CONTEXT(
'core data for automotive mechanical design processes');
ENDSEC;
END-ISO-10303-21;
