ISO-10303-21;
HEADER;
/* Generated by software containing ST-Developer
 * from STEP Tools, Inc. (www.steptools.com) 
 */
/* OPTION: strings as raw bytes, not using required /X/ escapes */

FILE_DESCRIPTION(
/* description */ ('Unknown'),
/* implementation_level */ '2;1');

FILE_NAME(
/* name */ 'SPL.1;2',
/* time_stamp */ '2018-10-18T13:41:10-04:00',
/* author */ ('Unknown'),
/* organization */ ('Unknown'),
/* preprocessor_version */ 'ST-DEVELOPER v16.7',
/* originating_system */ 'DEX',
/* authorisation */ $);

FILE_SCHEMA (('AUTOMOTIVE_DESIGN {1 0 10303 214 3 1 1}'));
ENDSEC;

DATA;
#10=PROPERTY_DEFINITION_REPRESENTATION(#14,#12);
#11=PROPERTY_DEFINITION_REPRESENTATION(#15,#13);
#12=REPRESENTATION('',(#16),#414);
#13=REPRESENTATION('',(#17),#414);
#14=PROPERTY_DEFINITION('pmi validation property','',#419);
#15=PROPERTY_DEFINITION('pmi validation property','',#419);
#16=VALUE_REPRESENTATION_ITEM('number of annotations',COUNT_MEASURE(0.));
#17=VALUE_REPRESENTATION_ITEM('number of views',COUNT_MEASURE(0.));
#18=SHAPE_REPRESENTATION_RELATIONSHIP('','',#281,#19);
#19=ADVANCED_BREP_SHAPE_REPRESENTATION('',(#279),#414);
#20=LINE('',#393,#28);
#21=LINE('',#395,#29);
#22=LINE('',#397,#30);
#23=LINE('',#399,#31);
#24=LINE('',#401,#32);
#25=LINE('',#403,#33);
#26=LINE('',#405,#34);
#27=LINE('',#407,#35);
#28=VECTOR('',#343,1000.);
#29=VECTOR('',#344,1000.);
#30=VECTOR('',#345,1000.);
#31=VECTOR('',#348,1000.);
#32=VECTOR('',#349,1000.);
#33=VECTOR('',#352,1000.);
#34=VECTOR('',#353,1000.);
#35=VECTOR('',#356,1000.);
#36=TOROIDAL_SURFACE('',#298,11.75,0.25);
#37=PLANE('',#292);
#38=PLANE('',#297);
#39=PLANE('',#299);
#40=PLANE('',#300);
#41=PLANE('',#301);
#42=PLANE('',#302);
#43=PLANE('',#303);
#44=PLANE('',#306);
#45=CYLINDRICAL_SURFACE('',#289,10.4775);
#46=CYLINDRICAL_SURFACE('',#294,12.);
#47=CYLINDRICAL_SURFACE('',#304,6.);
#48=ORIENTED_EDGE('',*,*,#86,.T.);
#49=ORIENTED_EDGE('',*,*,#87,.T.);
#50=ORIENTED_EDGE('',*,*,#88,.T.);
#51=ORIENTED_EDGE('',*,*,#89,.T.);
#52=ORIENTED_EDGE('',*,*,#90,.T.);
#53=ORIENTED_EDGE('',*,*,#91,.F.);
#54=ORIENTED_EDGE('',*,*,#92,.T.);
#55=ORIENTED_EDGE('',*,*,#93,.T.);
#56=ORIENTED_EDGE('',*,*,#91,.T.);
#57=ORIENTED_EDGE('',*,*,#94,.T.);
#58=ORIENTED_EDGE('',*,*,#95,.F.);
#59=ORIENTED_EDGE('',*,*,#92,.F.);
#60=ORIENTED_EDGE('',*,*,#95,.T.);
#61=ORIENTED_EDGE('',*,*,#86,.F.);
#62=ORIENTED_EDGE('',*,*,#94,.F.);
#63=ORIENTED_EDGE('',*,*,#96,.F.);
#64=ORIENTED_EDGE('',*,*,#97,.T.);
#65=ORIENTED_EDGE('',*,*,#98,.T.);
#66=ORIENTED_EDGE('',*,*,#88,.F.);
#67=ORIENTED_EDGE('',*,*,#98,.F.);
#68=ORIENTED_EDGE('',*,*,#99,.T.);
#69=ORIENTED_EDGE('',*,*,#100,.T.);
#70=ORIENTED_EDGE('',*,*,#89,.F.);
#71=ORIENTED_EDGE('',*,*,#100,.F.);
#72=ORIENTED_EDGE('',*,*,#101,.T.);
#73=ORIENTED_EDGE('',*,*,#102,.T.);
#74=ORIENTED_EDGE('',*,*,#90,.F.);
#75=ORIENTED_EDGE('',*,*,#102,.F.);
#76=ORIENTED_EDGE('',*,*,#103,.T.);
#77=ORIENTED_EDGE('',*,*,#96,.T.);
#78=ORIENTED_EDGE('',*,*,#87,.F.);
#79=ORIENTED_EDGE('',*,*,#97,.F.);
#80=ORIENTED_EDGE('',*,*,#103,.F.);
#81=ORIENTED_EDGE('',*,*,#101,.F.);
#82=ORIENTED_EDGE('',*,*,#99,.F.);
#83=ORIENTED_EDGE('',*,*,#104,.T.);
#84=ORIENTED_EDGE('',*,*,#93,.F.);
#85=ORIENTED_EDGE('',*,*,#104,.F.);
#86=EDGE_CURVE('',#105,#105,#120,.F.);
#87=EDGE_CURVE('',#106,#107,#121,.F.);
#88=EDGE_CURVE('',#107,#108,#122,.F.);
#89=EDGE_CURVE('',#108,#109,#123,.F.);
#90=EDGE_CURVE('',#109,#106,#124,.F.);
#91=EDGE_CURVE('',#110,#110,#125,.T.);
#92=EDGE_CURVE('',#111,#111,#126,.T.);
#93=EDGE_CURVE('',#112,#112,#127,.T.);
#94=EDGE_CURVE('',#113,#113,#128,.T.);
#95=EDGE_CURVE('',#114,#114,#129,.T.);
#96=EDGE_CURVE('',#115,#107,#20,.T.);
#97=EDGE_CURVE('',#115,#116,#21,.T.);
#98=EDGE_CURVE('',#116,#108,#22,.T.);
#99=EDGE_CURVE('',#116,#117,#23,.T.);
#100=EDGE_CURVE('',#117,#109,#24,.T.);
#101=EDGE_CURVE('',#117,#118,#25,.T.);
#102=EDGE_CURVE('',#118,#106,#26,.T.);
#103=EDGE_CURVE('',#118,#115,#27,.T.);
#104=EDGE_CURVE('',#119,#119,#130,.T.);
#105=VERTEX_POINT('',#368);
#106=VERTEX_POINT('',#370);
#107=VERTEX_POINT('',#371);
#108=VERTEX_POINT('',#373);
#109=VERTEX_POINT('',#375);
#110=VERTEX_POINT('',#379);
#111=VERTEX_POINT('',#381);
#112=VERTEX_POINT('',#384);
#113=VERTEX_POINT('',#387);
#114=VERTEX_POINT('',#389);
#115=VERTEX_POINT('',#394);
#116=VERTEX_POINT('',#396);
#117=VERTEX_POINT('',#400);
#118=VERTEX_POINT('',#404);
#119=VERTEX_POINT('',#411);
#120=CIRCLE('',#284,11.8663366336634);
#121=CIRCLE('',#285,25.4740554290043);
#122=CIRCLE('',#286,22.7596133534817);
#123=CIRCLE('',#287,25.4740554290043);
#124=CIRCLE('',#288,22.7596133534817);
#125=CIRCLE('',#290,10.4775);
#126=CIRCLE('',#291,10.4775);
#127=CIRCLE('',#293,6.);
#128=CIRCLE('',#295,12.);
#129=CIRCLE('',#296,12.);
#130=CIRCLE('',#305,6.);
#131=EDGE_LOOP('',(#48));
#132=EDGE_LOOP('',(#49,#50,#51,#52));
#133=EDGE_LOOP('',(#53));
#134=EDGE_LOOP('',(#54));
#135=EDGE_LOOP('',(#55));
#136=EDGE_LOOP('',(#56));
#137=EDGE_LOOP('',(#57));
#138=EDGE_LOOP('',(#58));
#139=EDGE_LOOP('',(#59));
#140=EDGE_LOOP('',(#60));
#141=EDGE_LOOP('',(#61));
#142=EDGE_LOOP('',(#62));
#143=EDGE_LOOP('',(#63,#64,#65,#66));
#144=EDGE_LOOP('',(#67,#68,#69,#70));
#145=EDGE_LOOP('',(#71,#72,#73,#74));
#146=EDGE_LOOP('',(#75,#76,#77,#78));
#147=EDGE_LOOP('',(#79,#80,#81,#82));
#148=EDGE_LOOP('',(#83));
#149=EDGE_LOOP('',(#84));
#150=EDGE_LOOP('',(#85));
#151=FACE_BOUND('',#131,.T.);
#152=FACE_BOUND('',#132,.T.);
#153=FACE_BOUND('',#133,.T.);
#154=FACE_BOUND('',#134,.T.);
#155=FACE_BOUND('',#135,.T.);
#156=FACE_BOUND('',#136,.T.);
#157=FACE_BOUND('',#137,.T.);
#158=FACE_BOUND('',#138,.T.);
#159=FACE_BOUND('',#139,.T.);
#160=FACE_BOUND('',#140,.T.);
#161=FACE_BOUND('',#141,.T.);
#162=FACE_BOUND('',#142,.T.);
#163=FACE_BOUND('',#143,.T.);
#164=FACE_BOUND('',#144,.T.);
#165=FACE_BOUND('',#145,.T.);
#166=FACE_BOUND('',#146,.T.);
#167=FACE_BOUND('',#147,.T.);
#168=FACE_BOUND('',#148,.T.);
#169=FACE_BOUND('',#149,.T.);
#170=FACE_BOUND('',#150,.T.);
#171=SPHERICAL_SURFACE('',#283,25.4999999999996);
#172=STYLED_ITEM('',(#185),#265);
#173=STYLED_ITEM('',(#186),#266);
#174=STYLED_ITEM('',(#187),#267);
#175=STYLED_ITEM('',(#188),#268);
#176=STYLED_ITEM('',(#189),#269);
#177=STYLED_ITEM('',(#190),#270);
#178=STYLED_ITEM('',(#191),#271);
#179=STYLED_ITEM('',(#192),#272);
#180=STYLED_ITEM('',(#193),#273);
#181=STYLED_ITEM('',(#194),#274);
#182=STYLED_ITEM('',(#195),#275);
#183=STYLED_ITEM('',(#196),#276);
#184=STYLED_ITEM('',(#197),#277);
#185=PRESENTATION_STYLE_ASSIGNMENT((#198));
#186=PRESENTATION_STYLE_ASSIGNMENT((#199));
#187=PRESENTATION_STYLE_ASSIGNMENT((#200));
#188=PRESENTATION_STYLE_ASSIGNMENT((#201));
#189=PRESENTATION_STYLE_ASSIGNMENT((#202));
#190=PRESENTATION_STYLE_ASSIGNMENT((#203));
#191=PRESENTATION_STYLE_ASSIGNMENT((#204));
#192=PRESENTATION_STYLE_ASSIGNMENT((#205));
#193=PRESENTATION_STYLE_ASSIGNMENT((#206));
#194=PRESENTATION_STYLE_ASSIGNMENT((#207));
#195=PRESENTATION_STYLE_ASSIGNMENT((#208));
#196=PRESENTATION_STYLE_ASSIGNMENT((#209));
#197=PRESENTATION_STYLE_ASSIGNMENT((#210));
#198=SURFACE_STYLE_USAGE(.BOTH.,#211);
#199=SURFACE_STYLE_USAGE(.BOTH.,#212);
#200=SURFACE_STYLE_USAGE(.BOTH.,#213);
#201=SURFACE_STYLE_USAGE(.BOTH.,#214);
#202=SURFACE_STYLE_USAGE(.BOTH.,#215);
#203=SURFACE_STYLE_USAGE(.BOTH.,#216);
#204=SURFACE_STYLE_USAGE(.BOTH.,#217);
#205=SURFACE_STYLE_USAGE(.BOTH.,#218);
#206=SURFACE_STYLE_USAGE(.BOTH.,#219);
#207=SURFACE_STYLE_USAGE(.BOTH.,#220);
#208=SURFACE_STYLE_USAGE(.BOTH.,#221);
#209=SURFACE_STYLE_USAGE(.BOTH.,#222);
#210=SURFACE_STYLE_USAGE(.BOTH.,#223);
#211=SURFACE_SIDE_STYLE('',(#224));
#212=SURFACE_SIDE_STYLE('',(#225));
#213=SURFACE_SIDE_STYLE('',(#226));
#214=SURFACE_SIDE_STYLE('',(#227));
#215=SURFACE_SIDE_STYLE('',(#228));
#216=SURFACE_SIDE_STYLE('',(#229));
#217=SURFACE_SIDE_STYLE('',(#230));
#218=SURFACE_SIDE_STYLE('',(#231));
#219=SURFACE_SIDE_STYLE('',(#232));
#220=SURFACE_SIDE_STYLE('',(#233));
#221=SURFACE_SIDE_STYLE('',(#234));
#222=SURFACE_SIDE_STYLE('',(#235));
#223=SURFACE_SIDE_STYLE('',(#236));
#224=SURFACE_STYLE_FILL_AREA(#237);
#225=SURFACE_STYLE_FILL_AREA(#238);
#226=SURFACE_STYLE_FILL_AREA(#239);
#227=SURFACE_STYLE_FILL_AREA(#240);
#228=SURFACE_STYLE_FILL_AREA(#241);
#229=SURFACE_STYLE_FILL_AREA(#242);
#230=SURFACE_STYLE_FILL_AREA(#243);
#231=SURFACE_STYLE_FILL_AREA(#244);
#232=SURFACE_STYLE_FILL_AREA(#245);
#233=SURFACE_STYLE_FILL_AREA(#246);
#234=SURFACE_STYLE_FILL_AREA(#247);
#235=SURFACE_STYLE_FILL_AREA(#248);
#236=SURFACE_STYLE_FILL_AREA(#249);
#237=FILL_AREA_STYLE('',(#250));
#238=FILL_AREA_STYLE('',(#251));
#239=FILL_AREA_STYLE('',(#252));
#240=FILL_AREA_STYLE('',(#253));
#241=FILL_AREA_STYLE('',(#254));
#242=FILL_AREA_STYLE('',(#255));
#243=FILL_AREA_STYLE('',(#256));
#244=FILL_AREA_STYLE('',(#257));
#245=FILL_AREA_STYLE('',(#258));
#246=FILL_AREA_STYLE('',(#259));
#247=FILL_AREA_STYLE('',(#260));
#248=FILL_AREA_STYLE('',(#261));
#249=FILL_AREA_STYLE('',(#262));
#250=FILL_AREA_STYLE_COLOUR('',#263);
#251=FILL_AREA_STYLE_COLOUR('',#264);
#252=FILL_AREA_STYLE_COLOUR('',#263);
#253=FILL_AREA_STYLE_COLOUR('',#263);
#254=FILL_AREA_STYLE_COLOUR('',#263);
#255=FILL_AREA_STYLE_COLOUR('',#263);
#256=FILL_AREA_STYLE_COLOUR('',#263);
#257=FILL_AREA_STYLE_COLOUR('',#263);
#258=FILL_AREA_STYLE_COLOUR('',#263);
#259=FILL_AREA_STYLE_COLOUR('',#263);
#260=FILL_AREA_STYLE_COLOUR('',#263);
#261=FILL_AREA_STYLE_COLOUR('',#263);
#262=FILL_AREA_STYLE_COLOUR('',#263);
#263=COLOUR_RGB('',0.506983280181885,0.531564235687256,0.550000011920929);
#264=COLOUR_RGB('',0.1875,0.75,0.581249892711639);
#265=ADVANCED_FACE('',(#151,#152),#171,.T.);
#266=ADVANCED_FACE('',(#153,#154),#45,.T.);
#267=ADVANCED_FACE('',(#155,#156),#37,.T.);
#268=ADVANCED_FACE('',(#157,#158),#46,.T.);
#269=ADVANCED_FACE('',(#159,#160),#38,.T.);
#270=ADVANCED_FACE('',(#161,#162),#36,.T.);
#271=ADVANCED_FACE('',(#163),#39,.T.);
#272=ADVANCED_FACE('',(#164),#40,.T.);
#273=ADVANCED_FACE('',(#165),#41,.T.);
#274=ADVANCED_FACE('',(#166),#42,.T.);
#275=ADVANCED_FACE('',(#167),#43,.F.);
#276=ADVANCED_FACE('',(#168,#169),#47,.F.);
#277=ADVANCED_FACE('',(#170),#44,.F.);
#278=CLOSED_SHELL('',(#265,#266,#267,#268,#269,#270,#271,#272,#273,#274,
#275,#276,#277));
#279=MANIFOLD_SOLID_BREP('',#278);
#280=SHAPE_DEFINITION_REPRESENTATION(#419,#281);
#281=SHAPE_REPRESENTATION('SPL.1;2',(#282),#414);
#282=AXIS2_PLACEMENT_3D('',#365,#307,#308);
#283=AXIS2_PLACEMENT_3D('',#366,#309,#310);
#284=AXIS2_PLACEMENT_3D('',#367,#311,#312);
#285=AXIS2_PLACEMENT_3D('',#369,#313,#314);
#286=AXIS2_PLACEMENT_3D('',#372,#315,#316);
#287=AXIS2_PLACEMENT_3D('',#374,#317,#318);
#288=AXIS2_PLACEMENT_3D('',#376,#319,#320);
#289=AXIS2_PLACEMENT_3D('',#377,#321,#322);
#290=AXIS2_PLACEMENT_3D('',#378,#323,#324);
#291=AXIS2_PLACEMENT_3D('',#380,#325,#326);
#292=AXIS2_PLACEMENT_3D('',#382,#327,#328);
#293=AXIS2_PLACEMENT_3D('',#383,#329,#330);
#294=AXIS2_PLACEMENT_3D('',#385,#331,#332);
#295=AXIS2_PLACEMENT_3D('',#386,#333,#334);
#296=AXIS2_PLACEMENT_3D('',#388,#335,#336);
#297=AXIS2_PLACEMENT_3D('',#390,#337,#338);
#298=AXIS2_PLACEMENT_3D('',#391,#339,#340);
#299=AXIS2_PLACEMENT_3D('',#392,#341,#342);
#300=AXIS2_PLACEMENT_3D('',#398,#346,#347);
#301=AXIS2_PLACEMENT_3D('',#402,#350,#351);
#302=AXIS2_PLACEMENT_3D('',#406,#354,#355);
#303=AXIS2_PLACEMENT_3D('',#408,#357,#358);
#304=AXIS2_PLACEMENT_3D('',#409,#359,#360);
#305=AXIS2_PLACEMENT_3D('',#410,#361,#362);
#306=AXIS2_PLACEMENT_3D('',#412,#363,#364);
#307=DIRECTION('',(0.,0.,1.));
#308=DIRECTION('',(1.,0.,0.));
#309=DIRECTION('',(-1.22464679914735E-16,1.,0.));
#310=DIRECTION('',(1.,1.22464679914735E-16,0.));
#311=DIRECTION('',(0.,1.,0.));
#312=DIRECTION('',(0.,0.,1.));
#313=DIRECTION('',(0.,0.,1.));
#314=DIRECTION('',(1.,0.,0.));
#315=DIRECTION('',(1.,0.,0.));
#316=DIRECTION('',(0.,0.,-1.));
#317=DIRECTION('',(0.,0.,-1.));
#318=DIRECTION('',(-1.,0.,0.));
#319=DIRECTION('',(-1.,0.,0.));
#320=DIRECTION('',(0.,0.,1.));
#321=DIRECTION('',(0.,-1.,0.));
#322=DIRECTION('',(0.,0.,-1.));
#323=DIRECTION('',(0.,1.,0.));
#324=DIRECTION('',(0.,0.,1.));
#325=DIRECTION('',(0.,1.,0.));
#326=DIRECTION('',(0.,0.,1.));
#327=DIRECTION('',(0.,1.,0.));
#328=DIRECTION('',(0.,0.,1.));
#329=DIRECTION('',(1.65566545070561E-16,-1.,0.));
#330=DIRECTION('',(-1.,-1.65566545070561E-16,0.));
#331=DIRECTION('',(0.,1.,0.));
#332=DIRECTION('',(0.,0.,1.));
#333=DIRECTION('',(0.,1.,0.));
#334=DIRECTION('',(0.,0.,1.));
#335=DIRECTION('',(0.,1.,0.));
#336=DIRECTION('',(1.,0.,0.));
#337=DIRECTION('',(0.,1.,0.));
#338=DIRECTION('',(0.,0.,1.));
#339=DIRECTION('',(0.,1.,0.));
#340=DIRECTION('',(0.,0.,1.));
#341=DIRECTION('',(1.,0.,0.));
#342=DIRECTION('',(0.,0.,-1.));
#343=DIRECTION('',(0.,-1.,0.));
#344=DIRECTION('',(0.,0.,1.));
#345=DIRECTION('',(0.,-1.,0.));
#346=DIRECTION('',(0.,0.,-1.));
#347=DIRECTION('',(-1.,0.,0.));
#348=DIRECTION('',(1.,0.,0.));
#349=DIRECTION('',(0.,-1.,0.));
#350=DIRECTION('',(-1.,0.,0.));
#351=DIRECTION('',(0.,0.,1.));
#352=DIRECTION('',(0.,0.,-1.));
#353=DIRECTION('',(0.,-1.,0.));
#354=DIRECTION('',(0.,0.,1.));
#355=DIRECTION('',(1.,0.,0.));
#356=DIRECTION('',(-1.,0.,0.));
#357=DIRECTION('',(0.,1.,0.));
#358=DIRECTION('',(0.,0.,1.));
#359=DIRECTION('',(0.,1.,0.));
#360=DIRECTION('',(0.,0.,1.));
#361=DIRECTION('',(1.65566545070561E-16,-1.,0.));
#362=DIRECTION('',(-1.,-1.65566545070561E-16,0.));
#363=DIRECTION('',(1.65566545070561E-16,-1.,0.));
#364=DIRECTION('',(1.,1.65566545070561E-16,0.));
#365=CARTESIAN_POINT('',(0.,0.,0.));
#366=CARTESIAN_POINT('',(-3.46944695195361E-15,-21.0000000000004,0.));
#367=CARTESIAN_POINT('',(-3.46944695195361E-15,-43.5707787835639,0.));
#368=CARTESIAN_POINT('',(-3.46944695195361E-15,-43.5707787835639,11.8663366336634));
#369=CARTESIAN_POINT('',(-3.46944695195361E-15,-21.0000000000004,-1.15));
#370=CARTESIAN_POINT('',(11.5,-43.7305411286225,-1.15));
#371=CARTESIAN_POINT('',(-11.5,-43.7305411286225,-1.15));
#372=CARTESIAN_POINT('',(-11.5,-21.0000000000004,0.));
#373=CARTESIAN_POINT('',(-11.5,-43.7305411286225,1.15));
#374=CARTESIAN_POINT('',(-3.46944695195361E-15,-21.0000000000004,1.15));
#375=CARTESIAN_POINT('',(11.5,-43.7305411286225,1.15));
#376=CARTESIAN_POINT('',(11.5,-21.0000000000004,0.));
#377=CARTESIAN_POINT('',(0.,10.,0.));
#378=CARTESIAN_POINT('',(0.,10.,0.));
#379=CARTESIAN_POINT('',(0.,10.,10.4775));
#380=CARTESIAN_POINT('',(0.,0.,0.));
#381=CARTESIAN_POINT('',(0.,0.,10.4775));
#382=CARTESIAN_POINT('',(0.,10.,0.));
#383=CARTESIAN_POINT('',(0.,10.,0.));
#384=CARTESIAN_POINT('',(-6.,10.,0.));
#385=CARTESIAN_POINT('',(0.,-43.5,0.));
#386=CARTESIAN_POINT('',(0.,-43.349496638627,0.));
#387=CARTESIAN_POINT('',(0.,-43.349496638627,12.));
#388=CARTESIAN_POINT('',(0.,0.,0.));
#389=CARTESIAN_POINT('',(12.,0.,0.));
#390=CARTESIAN_POINT('',(0.,0.,0.));
#391=CARTESIAN_POINT('',(0.,-43.349496638627,0.));
#392=CARTESIAN_POINT('',(-11.5,-43.6946306423618,-1.15));
#393=CARTESIAN_POINT('',(-11.5,-43.6946306423618,-1.15));
#394=CARTESIAN_POINT('',(-11.5,-43.6946306423618,-1.15));
#395=CARTESIAN_POINT('',(-11.5,-43.6946306423618,-1.15));
#396=CARTESIAN_POINT('',(-11.5,-43.6946306423618,1.15));
#397=CARTESIAN_POINT('',(-11.5,-43.6946306423618,1.15));
#398=CARTESIAN_POINT('',(-11.5,-43.6946306423618,1.15));
#399=CARTESIAN_POINT('',(-11.5,-43.6946306423618,1.15));
#400=CARTESIAN_POINT('',(11.5,-43.6946306423618,1.15));
#401=CARTESIAN_POINT('',(11.5,-43.6946306423618,1.15));
#402=CARTESIAN_POINT('',(11.5,-43.6946306423618,1.15));
#403=CARTESIAN_POINT('',(11.5,-43.6946306423618,1.15));
#404=CARTESIAN_POINT('',(11.5,-43.6946306423618,-1.15));
#405=CARTESIAN_POINT('',(11.5,-43.6946306423618,-1.15));
#406=CARTESIAN_POINT('',(11.5,-43.6946306423618,-1.15));
#407=CARTESIAN_POINT('',(11.5,-43.6946306423618,-1.15));
#408=CARTESIAN_POINT('',(0.,-43.6946306423618,0.));
#409=CARTESIAN_POINT('',(0.,-13.,0.));
#410=CARTESIAN_POINT('',(0.,-13.,0.));
#411=CARTESIAN_POINT('',(-6.,-13.,0.));
#412=CARTESIAN_POINT('',(0.,-13.,0.));
#413=MECHANICAL_DESIGN_GEOMETRIC_PRESENTATION_REPRESENTATION('',(#172,#173,
#174,#175,#176,#177,#178,#179,#180,#181,#182,#183,#184),#414);
#414=(
GEOMETRIC_REPRESENTATION_CONTEXT(3)
GLOBAL_UNCERTAINTY_ASSIGNED_CONTEXT((#415))
GLOBAL_UNIT_ASSIGNED_CONTEXT((#418,#417,#416))
REPRESENTATION_CONTEXT('SPL.1;2','TOP_LEVEL_ASSEMBLY_PART')
);
#415=UNCERTAINTY_MEASURE_WITH_UNIT(LENGTH_MEASURE(0.005),#418,
'DISTANCE_ACCURACY_VALUE','Maximum Tolerance applied to model');
#416=(
NAMED_UNIT(*)
SI_UNIT($,.STERADIAN.)
SOLID_ANGLE_UNIT()
);
#417=(
NAMED_UNIT(*)
PLANE_ANGLE_UNIT()
SI_UNIT($,.RADIAN.)
);
#418=(
LENGTH_UNIT()
NAMED_UNIT(*)
SI_UNIT(.MILLI.,.METRE.)
);
#419=PRODUCT_DEFINITION_SHAPE('','',#420);
#420=PRODUCT_DEFINITION('','',#422,#421);
#421=PRODUCT_DEFINITION_CONTEXT('',#428,'design');
#422=PRODUCT_DEFINITION_FORMATION_WITH_SPECIFIED_SOURCE('','',#424,
 .NOT_KNOWN.);
#423=PRODUCT_RELATED_PRODUCT_CATEGORY('','',(#424));
#424=PRODUCT('SPL.1;2','SPL.1;2','SPL.1;2',(#426));
#425=PRODUCT_CATEGORY('','');
#426=PRODUCT_CONTEXT('',#428,'mechanical');
#427=APPLICATION_PROTOCOL_DEFINITION('international standard',
'automotive_design',2010,#428);
#428=APPLICATION_CONTEXT(
'core data for automotive mechanical design processes');
ENDSEC;
END-ISO-10303-21;
