ISO-10303-21;
HEADER;
/* Generated by software containing ST-Developer
 * from STEP Tools, Inc. (www.steptools.com) 
 */
/* OPTION: strings as raw bytes, not using required /X/ escapes */

FILE_DESCRIPTION(
/* description */ ('Unknown'),
/* implementation_level */ '2;1');

FILE_NAME(
/* name */ 'SPL.1;4',
/* time_stamp */ '2018-10-18T13:31:28-04:00',
/* author */ ('Unknown'),
/* organization */ ('Unknown'),
/* preprocessor_version */ 'ST-DEVELOPER v16.7',
/* originating_system */ 'DEX',
/* authorisation */ $);

FILE_SCHEMA (('AUTOMOTIVE_DESIGN {1 0 10303 214 3 1 1}'));
ENDSEC;

DATA;
#10=PROPERTY_DEFINITION_REPRESENTATION(#14,#12);
#11=PROPERTY_DEFINITION_REPRESENTATION(#15,#13);
#12=REPRESENTATION('',(#16),#263);
#13=REPRESENTATION('',(#17),#263);
#14=PROPERTY_DEFINITION('pmi validation property','',#268);
#15=PROPERTY_DEFINITION('pmi validation property','',#268);
#16=VALUE_REPRESENTATION_ITEM('number of annotations',COUNT_MEASURE(0.));
#17=VALUE_REPRESENTATION_ITEM('number of views',COUNT_MEASURE(0.));
#18=SHAPE_REPRESENTATION_RELATIONSHIP('','',#154,#19);
#19=ADVANCED_BREP_SHAPE_REPRESENTATION('',(#152),#263);
#20=LINE('',#254,#22);
#21=LINE('',#256,#23);
#22=VECTOR('',#214,1000.);
#23=VECTOR('',#217,1000.);
#24=TOROIDAL_SURFACE('',#171,9.175,0.25);
#25=SPHERICAL_SURFACE('',#165,23.207656249996);
#26=PLANE('',#159);
#27=PLANE('',#164);
#28=PLANE('',#172);
#29=PLANE('',#173);
#30=PLANE('',#174);
#31=PLANE('',#177);
#32=ORIENTED_EDGE('',*,*,#58,.F.);
#33=ORIENTED_EDGE('',*,*,#59,.T.);
#34=ORIENTED_EDGE('',*,*,#60,.T.);
#35=ORIENTED_EDGE('',*,*,#58,.T.);
#36=ORIENTED_EDGE('',*,*,#61,.T.);
#37=ORIENTED_EDGE('',*,*,#62,.F.);
#38=ORIENTED_EDGE('',*,*,#59,.F.);
#39=ORIENTED_EDGE('',*,*,#62,.T.);
#40=ORIENTED_EDGE('',*,*,#63,.F.);
#41=ORIENTED_EDGE('',*,*,#64,.T.);
#42=ORIENTED_EDGE('',*,*,#65,.F.);
#43=ORIENTED_EDGE('',*,*,#66,.T.);
#44=ORIENTED_EDGE('',*,*,#67,.T.);
#45=ORIENTED_EDGE('',*,*,#67,.F.);
#46=ORIENTED_EDGE('',*,*,#61,.F.);
#47=ORIENTED_EDGE('',*,*,#68,.T.);
#48=ORIENTED_EDGE('',*,*,#64,.F.);
#49=ORIENTED_EDGE('',*,*,#69,.T.);
#50=ORIENTED_EDGE('',*,*,#66,.F.);
#51=ORIENTED_EDGE('',*,*,#63,.T.);
#52=ORIENTED_EDGE('',*,*,#69,.F.);
#53=ORIENTED_EDGE('',*,*,#65,.T.);
#54=ORIENTED_EDGE('',*,*,#68,.F.);
#55=ORIENTED_EDGE('',*,*,#70,.T.);
#56=ORIENTED_EDGE('',*,*,#60,.F.);
#57=ORIENTED_EDGE('',*,*,#70,.F.);
#58=EDGE_CURVE('',#71,#71,#82,.T.);
#59=EDGE_CURVE('',#72,#72,#83,.T.);
#60=EDGE_CURVE('',#73,#73,#84,.T.);
#61=EDGE_CURVE('',#74,#74,#85,.T.);
#62=EDGE_CURVE('',#75,#75,#86,.T.);
#63=EDGE_CURVE('',#76,#77,#87,.F.);
#64=EDGE_CURVE('',#76,#78,#88,.F.);
#65=EDGE_CURVE('',#79,#78,#89,.F.);
#66=EDGE_CURVE('',#79,#77,#90,.F.);
#67=EDGE_CURVE('',#80,#80,#91,.F.);
#68=EDGE_CURVE('',#76,#78,#20,.T.);
#69=EDGE_CURVE('',#79,#77,#21,.T.);
#70=EDGE_CURVE('',#81,#81,#92,.T.);
#71=VERTEX_POINT('',#229);
#72=VERTEX_POINT('',#231);
#73=VERTEX_POINT('',#234);
#74=VERTEX_POINT('',#237);
#75=VERTEX_POINT('',#239);
#76=VERTEX_POINT('',#243);
#77=VERTEX_POINT('',#244);
#78=VERTEX_POINT('',#246);
#79=VERTEX_POINT('',#248);
#80=VERTEX_POINT('',#251);
#81=VERTEX_POINT('',#260);
#82=CIRCLE('',#157,6.15);
#83=CIRCLE('',#158,6.15);
#84=CIRCLE('',#160,4.75);
#85=CIRCLE('',#162,9.425);
#86=CIRCLE('',#163,9.425);
#87=CIRCLE('',#166,8.21597315642804);
#88=CIRCLE('',#167,23.1791459855185);
#89=CIRCLE('',#168,8.21597315642804);
#90=CIRCLE('',#169,23.1791459855185);
#91=CIRCLE('',#170,9.27491220249238);
#92=CIRCLE('',#176,4.75);
#93=EDGE_LOOP('',(#32));
#94=EDGE_LOOP('',(#33));
#95=EDGE_LOOP('',(#34));
#96=EDGE_LOOP('',(#35));
#97=EDGE_LOOP('',(#36));
#98=EDGE_LOOP('',(#37));
#99=EDGE_LOOP('',(#38));
#100=EDGE_LOOP('',(#39));
#101=EDGE_LOOP('',(#40,#41,#42,#43));
#102=EDGE_LOOP('',(#44));
#103=EDGE_LOOP('',(#45));
#104=EDGE_LOOP('',(#46));
#105=EDGE_LOOP('',(#47,#48));
#106=EDGE_LOOP('',(#49,#50));
#107=EDGE_LOOP('',(#51,#52,#53,#54));
#108=EDGE_LOOP('',(#55));
#109=EDGE_LOOP('',(#56));
#110=EDGE_LOOP('',(#57));
#111=FACE_BOUND('',#93,.T.);
#112=FACE_BOUND('',#94,.T.);
#113=FACE_BOUND('',#95,.T.);
#114=FACE_BOUND('',#96,.T.);
#115=FACE_BOUND('',#97,.T.);
#116=FACE_BOUND('',#98,.T.);
#117=FACE_BOUND('',#99,.T.);
#118=FACE_BOUND('',#100,.T.);
#119=FACE_BOUND('',#101,.T.);
#120=FACE_BOUND('',#102,.T.);
#121=FACE_BOUND('',#103,.T.);
#122=FACE_BOUND('',#104,.T.);
#123=FACE_BOUND('',#105,.T.);
#124=FACE_BOUND('',#106,.T.);
#125=FACE_BOUND('',#107,.T.);
#126=FACE_BOUND('',#108,.T.);
#127=FACE_BOUND('',#109,.T.);
#128=FACE_BOUND('',#110,.T.);
#129=CYLINDRICAL_SURFACE('',#156,6.15);
#130=CYLINDRICAL_SURFACE('',#161,9.425);
#131=CYLINDRICAL_SURFACE('',#175,4.75);
#132=ADVANCED_FACE('',(#111,#112),#129,.T.);
#133=ADVANCED_FACE('',(#113,#114),#26,.T.);
#134=ADVANCED_FACE('',(#115,#116),#130,.T.);
#135=ADVANCED_FACE('',(#117,#118),#27,.T.);
#136=ADVANCED_FACE('',(#119,#120),#25,.T.);
#137=ADVANCED_FACE('',(#121,#122),#24,.T.);
#138=ADVANCED_FACE('',(#123),#28,.T.);
#139=ADVANCED_FACE('',(#124),#29,.T.);
#140=ADVANCED_FACE('',(#125),#30,.F.);
#141=ADVANCED_FACE('',(#126,#127),#131,.F.);
#142=ADVANCED_FACE('',(#128),#31,.F.);
#143=CLOSED_SHELL('',(#132,#133,#134,#135,#136,#137,#138,#139,#140,#141,
#142));
#144=STYLED_ITEM('',(#145),#152);
#145=PRESENTATION_STYLE_ASSIGNMENT((#146));
#146=SURFACE_STYLE_USAGE(.BOTH.,#147);
#147=SURFACE_SIDE_STYLE('',(#148));
#148=SURFACE_STYLE_FILL_AREA(#149);
#149=FILL_AREA_STYLE('',(#150));
#150=FILL_AREA_STYLE_COLOUR('',#151);
#151=COLOUR_RGB('',0.506983280181885,0.531564235687256,0.550000011920929);
#152=MANIFOLD_SOLID_BREP('',#143);
#153=SHAPE_DEFINITION_REPRESENTATION(#268,#154);
#154=SHAPE_REPRESENTATION('SPL.1;4',(#155),#263);
#155=AXIS2_PLACEMENT_3D('',#226,#178,#179);
#156=AXIS2_PLACEMENT_3D('',#227,#180,#181);
#157=AXIS2_PLACEMENT_3D('',#228,#182,#183);
#158=AXIS2_PLACEMENT_3D('',#230,#184,#185);
#159=AXIS2_PLACEMENT_3D('',#232,#186,#187);
#160=AXIS2_PLACEMENT_3D('',#233,#188,#189);
#161=AXIS2_PLACEMENT_3D('',#235,#190,#191);
#162=AXIS2_PLACEMENT_3D('',#236,#192,#193);
#163=AXIS2_PLACEMENT_3D('',#238,#194,#195);
#164=AXIS2_PLACEMENT_3D('',#240,#196,#197);
#165=AXIS2_PLACEMENT_3D('',#241,#198,#199);
#166=AXIS2_PLACEMENT_3D('',#242,#200,#201);
#167=AXIS2_PLACEMENT_3D('',#245,#202,#203);
#168=AXIS2_PLACEMENT_3D('',#247,#204,#205);
#169=AXIS2_PLACEMENT_3D('',#249,#206,#207);
#170=AXIS2_PLACEMENT_3D('',#250,#208,#209);
#171=AXIS2_PLACEMENT_3D('',#252,#210,#211);
#172=AXIS2_PLACEMENT_3D('',#253,#212,#213);
#173=AXIS2_PLACEMENT_3D('',#255,#215,#216);
#174=AXIS2_PLACEMENT_3D('',#257,#218,#219);
#175=AXIS2_PLACEMENT_3D('',#258,#220,#221);
#176=AXIS2_PLACEMENT_3D('',#259,#222,#223);
#177=AXIS2_PLACEMENT_3D('',#261,#224,#225);
#178=DIRECTION('',(0.,0.,1.));
#179=DIRECTION('',(1.,0.,0.));
#180=DIRECTION('',(0.,-1.,0.));
#181=DIRECTION('',(0.,0.,-1.));
#182=DIRECTION('',(0.,1.,0.));
#183=DIRECTION('',(1.,0.,0.));
#184=DIRECTION('',(0.,1.,0.));
#185=DIRECTION('',(1.,0.,0.));
#186=DIRECTION('',(0.,1.,0.));
#187=DIRECTION('',(0.,0.,1.));
#188=DIRECTION('',(1.41034428941204E-16,-1.,0.));
#189=DIRECTION('',(-1.,-1.41034428941204E-16,0.));
#190=DIRECTION('',(0.,1.,0.));
#191=DIRECTION('',(0.,0.,1.));
#192=DIRECTION('',(0.,1.,0.));
#193=DIRECTION('',(0.,0.,1.));
#194=DIRECTION('',(0.,1.,0.));
#195=DIRECTION('',(1.,0.,0.));
#196=DIRECTION('',(0.,1.,0.));
#197=DIRECTION('',(0.,0.,1.));
#198=DIRECTION('',(-6.1230317691119E-17,-1.,-1.85718815589154E-15));
#199=DIRECTION('',(-1.13716220797422E-31,-1.85718815589154E-15,1.));
#200=DIRECTION('',(0.,1.,0.));
#201=DIRECTION('',(0.,0.,1.));
#202=DIRECTION('',(1.,0.,0.));
#203=DIRECTION('',(0.,0.,-1.));
#204=DIRECTION('',(0.,1.,0.));
#205=DIRECTION('',(0.,0.,1.));
#206=DIRECTION('',(-1.,0.,0.));
#207=DIRECTION('',(0.,0.,1.));
#208=DIRECTION('',(0.,1.,0.));
#209=DIRECTION('',(0.,0.,1.));
#210=DIRECTION('',(0.,1.,0.));
#211=DIRECTION('',(0.,0.,1.));
#212=DIRECTION('',(1.,0.,0.));
#213=DIRECTION('',(0.,0.,-1.));
#214=DIRECTION('',(0.,0.,1.));
#215=DIRECTION('',(-1.,0.,0.));
#216=DIRECTION('',(0.,0.,1.));
#217=DIRECTION('',(0.,0.,-1.));
#218=DIRECTION('',(0.,1.,0.));
#219=DIRECTION('',(0.,0.,1.));
#220=DIRECTION('',(0.,1.,0.));
#221=DIRECTION('',(0.,0.,1.));
#222=DIRECTION('',(1.41034428941204E-16,-1.,0.));
#223=DIRECTION('',(-1.,-1.41034428941204E-16,0.));
#224=DIRECTION('',(1.41034428941204E-16,-1.,0.));
#225=DIRECTION('',(1.,1.41034428941204E-16,0.));
#226=CARTESIAN_POINT('',(0.,0.,0.));
#227=CARTESIAN_POINT('',(0.,7.6,0.));
#228=CARTESIAN_POINT('',(0.,7.6,0.));
#229=CARTESIAN_POINT('',(6.15,7.6,0.));
#230=CARTESIAN_POINT('',(0.,0.,0.));
#231=CARTESIAN_POINT('',(6.15,0.,0.));
#232=CARTESIAN_POINT('',(0.,7.6,0.));
#233=CARTESIAN_POINT('',(0.,7.6,0.));
#234=CARTESIAN_POINT('',(-4.75,7.6,0.));
#235=CARTESIAN_POINT('',(0.,-33.,0.));
#236=CARTESIAN_POINT('',(0.,-32.8369001837471,0.));
#237=CARTESIAN_POINT('',(0.,-32.8369001837471,9.425));
#238=CARTESIAN_POINT('',(0.,0.,0.));
#239=CARTESIAN_POINT('',(9.425,0.,0.));
#240=CARTESIAN_POINT('',(0.,0.,0.));
#241=CARTESIAN_POINT('',(-7.22048954135649E-16,-11.7923437500044,4.0766001685455E-14));
#242=CARTESIAN_POINT('',(-7.22048954135649E-16,-33.4970228241311,4.0766001685455E-14));
#243=CARTESIAN_POINT('',(-1.15,-33.4970228241311,-8.13509157337184));
#244=CARTESIAN_POINT('',(1.15,-33.4970228241311,-8.13509157337184));
#245=CARTESIAN_POINT('',(-1.15,-11.7923437500044,4.0766001685455E-14));
#246=CARTESIAN_POINT('',(-1.15,-33.4970228241311,8.13509157337192));
#247=CARTESIAN_POINT('',(-7.22048954135649E-16,-33.4970228241311,4.0766001685455E-14));
#248=CARTESIAN_POINT('',(1.15,-33.4970228241311,8.13509157337192));
#249=CARTESIAN_POINT('',(1.15,-11.7923437500044,4.0766001685455E-14));
#250=CARTESIAN_POINT('',(-7.22048954135649E-16,-33.0660672664468,4.0766001685455E-14));
#251=CARTESIAN_POINT('',(-7.22048954135649E-16,-33.0660672664468,9.27491220249242));
#252=CARTESIAN_POINT('',(0.,-32.8369001837471,0.));
#253=CARTESIAN_POINT('',(-1.15,-33.4970228241311,-8.75));
#254=CARTESIAN_POINT('',(-1.15,-33.4970228241311,-8.75));
#255=CARTESIAN_POINT('',(1.15,-33.4970228241311,8.75));
#256=CARTESIAN_POINT('',(1.15,-33.4970228241311,8.75));
#257=CARTESIAN_POINT('',(0.,-33.4970228241311,0.));
#258=CARTESIAN_POINT('',(0.,-8.4,0.));
#259=CARTESIAN_POINT('',(0.,-8.4,0.));
#260=CARTESIAN_POINT('',(-4.75,-8.4,0.));
#261=CARTESIAN_POINT('',(0.,-8.4,0.));
#262=MECHANICAL_DESIGN_GEOMETRIC_PRESENTATION_REPRESENTATION('',(#144),
#263);
#263=(
GEOMETRIC_REPRESENTATION_CONTEXT(3)
GLOBAL_UNCERTAINTY_ASSIGNED_CONTEXT((#264))
GLOBAL_UNIT_ASSIGNED_CONTEXT((#267,#266,#265))
REPRESENTATION_CONTEXT('SPL.1;4','TOP_LEVEL_ASSEMBLY_PART')
);
#264=UNCERTAINTY_MEASURE_WITH_UNIT(LENGTH_MEASURE(0.005),#267,
'DISTANCE_ACCURACY_VALUE','Maximum Tolerance applied to model');
#265=(
NAMED_UNIT(*)
SI_UNIT($,.STERADIAN.)
SOLID_ANGLE_UNIT()
);
#266=(
NAMED_UNIT(*)
PLANE_ANGLE_UNIT()
SI_UNIT($,.RADIAN.)
);
#267=(
LENGTH_UNIT()
NAMED_UNIT(*)
SI_UNIT(.MILLI.,.METRE.)
);
#268=PRODUCT_DEFINITION_SHAPE('','',#269);
#269=PRODUCT_DEFINITION('','',#271,#270);
#270=PRODUCT_DEFINITION_CONTEXT('',#277,'design');
#271=PRODUCT_DEFINITION_FORMATION_WITH_SPECIFIED_SOURCE('','',#273,
 .NOT_KNOWN.);
#272=PRODUCT_RELATED_PRODUCT_CATEGORY('','',(#273));
#273=PRODUCT('SPL.1;4','SPL.1;4','SPL.1;4',(#275));
#274=PRODUCT_CATEGORY('','');
#275=PRODUCT_CONTEXT('',#277,'mechanical');
#276=APPLICATION_PROTOCOL_DEFINITION('international standard',
'automotive_design',2010,#277);
#277=APPLICATION_CONTEXT(
'core data for automotive mechanical design processes');
ENDSEC;
END-ISO-10303-21;
