ISO-10303-21;
HEADER;
/* Generated by software containing ST-Developer
 * from STEP Tools, Inc. (www.steptools.com) 
 */
/* OPTION: strings as raw bytes, not using required /X/ escapes */

FILE_DESCRIPTION(
/* description */ ('Unknown'),
/* implementation_level */ '2;1');

FILE_NAME(
/* name */ 'SPL.1;8',
/* time_stamp */ '2018-10-18T13:24:49-04:00',
/* author */ ('Unknown'),
/* organization */ ('Unknown'),
/* preprocessor_version */ 'ST-DEVELOPER v16.7',
/* originating_system */ 'DEX',
/* authorisation */ $);

FILE_SCHEMA (('AUTOMOTIVE_DESIGN {1 0 10303 214 3 1 1}'));
ENDSEC;

DATA;
#10=PROPERTY_DEFINITION_REPRESENTATION(#14,#12);
#11=PROPERTY_DEFINITION_REPRESENTATION(#15,#13);
#12=REPRESENTATION('',(#16),#307);
#13=REPRESENTATION('',(#17),#307);
#14=PROPERTY_DEFINITION('pmi validation property','',#312);
#15=PROPERTY_DEFINITION('pmi validation property','',#312);
#16=VALUE_REPRESENTATION_ITEM('number of annotations',COUNT_MEASURE(0.));
#17=VALUE_REPRESENTATION_ITEM('number of views',COUNT_MEASURE(0.));
#18=SHAPE_REPRESENTATION_RELATIONSHIP('','',#207,#19);
#19=ADVANCED_BREP_SHAPE_REPRESENTATION('',(#205),#307);
#20=LINE('',#298,#22);
#21=LINE('',#300,#23);
#22=VECTOR('',#261,1000.);
#23=VECTOR('',#264,1000.);
#24=SPHERICAL_SURFACE('',#218,9.17257812500002);
#25=PLANE('',#212);
#26=PLANE('',#217);
#27=PLANE('',#223);
#28=PLANE('',#224);
#29=PLANE('',#225);
#30=PLANE('',#228);
#31=ORIENTED_EDGE('',*,*,#55,.F.);
#32=ORIENTED_EDGE('',*,*,#56,.T.);
#33=ORIENTED_EDGE('',*,*,#57,.T.);
#34=ORIENTED_EDGE('',*,*,#55,.T.);
#35=ORIENTED_EDGE('',*,*,#58,.T.);
#36=ORIENTED_EDGE('',*,*,#59,.F.);
#37=ORIENTED_EDGE('',*,*,#56,.F.);
#38=ORIENTED_EDGE('',*,*,#59,.T.);
#39=ORIENTED_EDGE('',*,*,#60,.F.);
#40=ORIENTED_EDGE('',*,*,#61,.T.);
#41=ORIENTED_EDGE('',*,*,#62,.F.);
#42=ORIENTED_EDGE('',*,*,#63,.T.);
#43=ORIENTED_EDGE('',*,*,#58,.F.);
#44=ORIENTED_EDGE('',*,*,#64,.T.);
#45=ORIENTED_EDGE('',*,*,#61,.F.);
#46=ORIENTED_EDGE('',*,*,#65,.T.);
#47=ORIENTED_EDGE('',*,*,#63,.F.);
#48=ORIENTED_EDGE('',*,*,#60,.T.);
#49=ORIENTED_EDGE('',*,*,#65,.F.);
#50=ORIENTED_EDGE('',*,*,#62,.T.);
#51=ORIENTED_EDGE('',*,*,#64,.F.);
#52=ORIENTED_EDGE('',*,*,#66,.T.);
#53=ORIENTED_EDGE('',*,*,#57,.F.);
#54=ORIENTED_EDGE('',*,*,#66,.F.);
#55=EDGE_CURVE('',#67,#67,#77,.T.);
#56=EDGE_CURVE('',#68,#68,#78,.T.);
#57=EDGE_CURVE('',#69,#69,#79,.T.);
#58=EDGE_CURVE('',#70,#70,#80,.T.);
#59=EDGE_CURVE('',#71,#71,#81,.T.);
#60=EDGE_CURVE('',#72,#73,#82,.F.);
#61=EDGE_CURVE('',#72,#74,#83,.F.);
#62=EDGE_CURVE('',#75,#74,#84,.F.);
#63=EDGE_CURVE('',#75,#73,#85,.F.);
#64=EDGE_CURVE('',#72,#74,#20,.T.);
#65=EDGE_CURVE('',#75,#73,#21,.T.);
#66=EDGE_CURVE('',#76,#76,#86,.T.);
#67=VERTEX_POINT('',#276);
#68=VERTEX_POINT('',#278);
#69=VERTEX_POINT('',#281);
#70=VERTEX_POINT('',#284);
#71=VERTEX_POINT('',#286);
#72=VERTEX_POINT('',#290);
#73=VERTEX_POINT('',#291);
#74=VERTEX_POINT('',#293);
#75=VERTEX_POINT('',#295);
#76=VERTEX_POINT('',#304);
#77=CIRCLE('',#210,4.864);
#78=CIRCLE('',#211,4.864);
#79=CIRCLE('',#213,3.65);
#80=CIRCLE('',#215,7.575);
#81=CIRCLE('',#216,7.575);
#82=CIRCLE('',#219,6.98943129234584);
#83=CIRCLE('',#220,9.10020271528217);
#84=CIRCLE('',#221,6.98943129234584);
#85=CIRCLE('',#222,9.10020271528217);
#86=CIRCLE('',#227,3.65);
#87=EDGE_LOOP('',(#31));
#88=EDGE_LOOP('',(#32));
#89=EDGE_LOOP('',(#33));
#90=EDGE_LOOP('',(#34));
#91=EDGE_LOOP('',(#35));
#92=EDGE_LOOP('',(#36));
#93=EDGE_LOOP('',(#37));
#94=EDGE_LOOP('',(#38));
#95=EDGE_LOOP('',(#39,#40,#41,#42));
#96=EDGE_LOOP('',(#43));
#97=EDGE_LOOP('',(#44,#45));
#98=EDGE_LOOP('',(#46,#47));
#99=EDGE_LOOP('',(#48,#49,#50,#51));
#100=EDGE_LOOP('',(#52));
#101=EDGE_LOOP('',(#53));
#102=EDGE_LOOP('',(#54));
#103=FACE_BOUND('',#87,.T.);
#104=FACE_BOUND('',#88,.T.);
#105=FACE_BOUND('',#89,.T.);
#106=FACE_BOUND('',#90,.T.);
#107=FACE_BOUND('',#91,.T.);
#108=FACE_BOUND('',#92,.T.);
#109=FACE_BOUND('',#93,.T.);
#110=FACE_BOUND('',#94,.T.);
#111=FACE_BOUND('',#95,.T.);
#112=FACE_BOUND('',#96,.T.);
#113=FACE_BOUND('',#97,.T.);
#114=FACE_BOUND('',#98,.T.);
#115=FACE_BOUND('',#99,.T.);
#116=FACE_BOUND('',#100,.T.);
#117=FACE_BOUND('',#101,.T.);
#118=FACE_BOUND('',#102,.T.);
#119=CYLINDRICAL_SURFACE('',#209,4.864);
#120=CYLINDRICAL_SURFACE('',#214,7.575);
#121=CYLINDRICAL_SURFACE('',#226,3.65);
#122=STYLED_ITEM('',(#132),#194);
#123=STYLED_ITEM('',(#133),#195);
#124=STYLED_ITEM('',(#134),#196);
#125=STYLED_ITEM('',(#135),#197);
#126=STYLED_ITEM('',(#136),#198);
#127=STYLED_ITEM('',(#137),#199);
#128=STYLED_ITEM('',(#138),#200);
#129=STYLED_ITEM('',(#139),#201);
#130=STYLED_ITEM('',(#140),#202);
#131=STYLED_ITEM('',(#141),#203);
#132=PRESENTATION_STYLE_ASSIGNMENT((#142));
#133=PRESENTATION_STYLE_ASSIGNMENT((#143));
#134=PRESENTATION_STYLE_ASSIGNMENT((#144));
#135=PRESENTATION_STYLE_ASSIGNMENT((#145));
#136=PRESENTATION_STYLE_ASSIGNMENT((#146));
#137=PRESENTATION_STYLE_ASSIGNMENT((#147));
#138=PRESENTATION_STYLE_ASSIGNMENT((#148));
#139=PRESENTATION_STYLE_ASSIGNMENT((#149));
#140=PRESENTATION_STYLE_ASSIGNMENT((#150));
#141=PRESENTATION_STYLE_ASSIGNMENT((#151));
#142=SURFACE_STYLE_USAGE(.BOTH.,#152);
#143=SURFACE_STYLE_USAGE(.BOTH.,#153);
#144=SURFACE_STYLE_USAGE(.BOTH.,#154);
#145=SURFACE_STYLE_USAGE(.BOTH.,#155);
#146=SURFACE_STYLE_USAGE(.BOTH.,#156);
#147=SURFACE_STYLE_USAGE(.BOTH.,#157);
#148=SURFACE_STYLE_USAGE(.BOTH.,#158);
#149=SURFACE_STYLE_USAGE(.BOTH.,#159);
#150=SURFACE_STYLE_USAGE(.BOTH.,#160);
#151=SURFACE_STYLE_USAGE(.BOTH.,#161);
#152=SURFACE_SIDE_STYLE('',(#162));
#153=SURFACE_SIDE_STYLE('',(#163));
#154=SURFACE_SIDE_STYLE('',(#164));
#155=SURFACE_SIDE_STYLE('',(#165));
#156=SURFACE_SIDE_STYLE('',(#166));
#157=SURFACE_SIDE_STYLE('',(#167));
#158=SURFACE_SIDE_STYLE('',(#168));
#159=SURFACE_SIDE_STYLE('',(#169));
#160=SURFACE_SIDE_STYLE('',(#170));
#161=SURFACE_SIDE_STYLE('',(#171));
#162=SURFACE_STYLE_FILL_AREA(#172);
#163=SURFACE_STYLE_FILL_AREA(#173);
#164=SURFACE_STYLE_FILL_AREA(#174);
#165=SURFACE_STYLE_FILL_AREA(#175);
#166=SURFACE_STYLE_FILL_AREA(#176);
#167=SURFACE_STYLE_FILL_AREA(#177);
#168=SURFACE_STYLE_FILL_AREA(#178);
#169=SURFACE_STYLE_FILL_AREA(#179);
#170=SURFACE_STYLE_FILL_AREA(#180);
#171=SURFACE_STYLE_FILL_AREA(#181);
#172=FILL_AREA_STYLE('',(#182));
#173=FILL_AREA_STYLE('',(#183));
#174=FILL_AREA_STYLE('',(#184));
#175=FILL_AREA_STYLE('',(#185));
#176=FILL_AREA_STYLE('',(#186));
#177=FILL_AREA_STYLE('',(#187));
#178=FILL_AREA_STYLE('',(#188));
#179=FILL_AREA_STYLE('',(#189));
#180=FILL_AREA_STYLE('',(#190));
#181=FILL_AREA_STYLE('',(#191));
#182=FILL_AREA_STYLE_COLOUR('',#192);
#183=FILL_AREA_STYLE_COLOUR('',#193);
#184=FILL_AREA_STYLE_COLOUR('',#193);
#185=FILL_AREA_STYLE_COLOUR('',#193);
#186=FILL_AREA_STYLE_COLOUR('',#193);
#187=FILL_AREA_STYLE_COLOUR('',#193);
#188=FILL_AREA_STYLE_COLOUR('',#193);
#189=FILL_AREA_STYLE_COLOUR('',#193);
#190=FILL_AREA_STYLE_COLOUR('',#193);
#191=FILL_AREA_STYLE_COLOUR('',#193);
#192=COLOUR_RGB('',0.1875,0.75,0.581249892711639);
#193=COLOUR_RGB('',0.506983280181885,0.531564235687256,0.550000011920929);
#194=ADVANCED_FACE('',(#103,#104),#119,.T.);
#195=ADVANCED_FACE('',(#105,#106),#25,.T.);
#196=ADVANCED_FACE('',(#107,#108),#120,.T.);
#197=ADVANCED_FACE('',(#109,#110),#26,.T.);
#198=ADVANCED_FACE('',(#111,#112),#24,.T.);
#199=ADVANCED_FACE('',(#113),#27,.T.);
#200=ADVANCED_FACE('',(#114),#28,.T.);
#201=ADVANCED_FACE('',(#115),#29,.F.);
#202=ADVANCED_FACE('',(#116,#117),#121,.F.);
#203=ADVANCED_FACE('',(#118),#30,.F.);
#204=CLOSED_SHELL('',(#194,#195,#196,#197,#198,#199,#200,#201,#202,#203));
#205=MANIFOLD_SOLID_BREP('',#204);
#206=SHAPE_DEFINITION_REPRESENTATION(#312,#207);
#207=SHAPE_REPRESENTATION('SPL.1;8',(#208),#307);
#208=AXIS2_PLACEMENT_3D('',#273,#229,#230);
#209=AXIS2_PLACEMENT_3D('',#274,#231,#232);
#210=AXIS2_PLACEMENT_3D('',#275,#233,#234);
#211=AXIS2_PLACEMENT_3D('',#277,#235,#236);
#212=AXIS2_PLACEMENT_3D('',#279,#237,#238);
#213=AXIS2_PLACEMENT_3D('',#280,#239,#240);
#214=AXIS2_PLACEMENT_3D('',#282,#241,#242);
#215=AXIS2_PLACEMENT_3D('',#283,#243,#244);
#216=AXIS2_PLACEMENT_3D('',#285,#245,#246);
#217=AXIS2_PLACEMENT_3D('',#287,#247,#248);
#218=AXIS2_PLACEMENT_3D('',#288,#249,#250);
#219=AXIS2_PLACEMENT_3D('',#289,#251,#252);
#220=AXIS2_PLACEMENT_3D('',#292,#253,#254);
#221=AXIS2_PLACEMENT_3D('',#294,#255,#256);
#222=AXIS2_PLACEMENT_3D('',#296,#257,#258);
#223=AXIS2_PLACEMENT_3D('',#297,#259,#260);
#224=AXIS2_PLACEMENT_3D('',#299,#262,#263);
#225=AXIS2_PLACEMENT_3D('',#301,#265,#266);
#226=AXIS2_PLACEMENT_3D('',#302,#267,#268);
#227=AXIS2_PLACEMENT_3D('',#303,#269,#270);
#228=AXIS2_PLACEMENT_3D('',#305,#271,#272);
#229=DIRECTION('',(0.,0.,1.));
#230=DIRECTION('',(1.,0.,0.));
#231=DIRECTION('',(0.,-1.,0.));
#232=DIRECTION('',(0.,0.,-1.));
#233=DIRECTION('',(0.,1.,0.));
#234=DIRECTION('',(0.,0.,1.));
#235=DIRECTION('',(0.,1.,0.));
#236=DIRECTION('',(0.,0.,1.));
#237=DIRECTION('',(0.,1.,0.));
#238=DIRECTION('',(0.,0.,1.));
#239=DIRECTION('',(1.92747052886312E-16,-1.,0.));
#240=DIRECTION('',(-1.,-1.92747052886312E-16,0.));
#241=DIRECTION('',(0.,1.,0.));
#242=DIRECTION('',(0.,0.,1.));
#243=DIRECTION('',(0.,1.,0.));
#244=DIRECTION('',(1.,0.,0.));
#245=DIRECTION('',(0.,1.,0.));
#246=DIRECTION('',(1.,0.,0.));
#247=DIRECTION('',(0.,1.,0.));
#248=DIRECTION('',(0.,0.,1.));
#249=DIRECTION('',(-1.22464679914735E-16,1.,0.));
#250=DIRECTION('',(1.,1.22464679914735E-16,0.));
#251=DIRECTION('',(0.,1.,0.));
#252=DIRECTION('',(0.,0.,1.));
#253=DIRECTION('',(1.,0.,0.));
#254=DIRECTION('',(0.,0.,-1.));
#255=DIRECTION('',(0.,1.,0.));
#256=DIRECTION('',(0.,0.,1.));
#257=DIRECTION('',(-1.,0.,0.));
#258=DIRECTION('',(0.,0.,1.));
#259=DIRECTION('',(1.,0.,0.));
#260=DIRECTION('',(0.,0.,-1.));
#261=DIRECTION('',(0.,0.,1.));
#262=DIRECTION('',(-1.,0.,0.));
#263=DIRECTION('',(0.,0.,1.));
#264=DIRECTION('',(0.,0.,-1.));
#265=DIRECTION('',(0.,1.,0.));
#266=DIRECTION('',(0.,0.,1.));
#267=DIRECTION('',(0.,1.,0.));
#268=DIRECTION('',(0.,0.,1.));
#269=DIRECTION('',(1.92747052886312E-16,-1.,0.));
#270=DIRECTION('',(-1.,-1.92747052886312E-16,0.));
#271=DIRECTION('',(1.92747052886312E-16,-1.,0.));
#272=DIRECTION('',(1.,1.92747052886312E-16,0.));
#273=CARTESIAN_POINT('',(0.,0.,0.));
#274=CARTESIAN_POINT('',(0.,6.,0.));
#275=CARTESIAN_POINT('',(0.,6.,0.));
#276=CARTESIAN_POINT('',(0.,6.,4.864));
#277=CARTESIAN_POINT('',(0.,0.,0.));
#278=CARTESIAN_POINT('',(0.,0.,4.864));
#279=CARTESIAN_POINT('',(0.,6.,0.));
#280=CARTESIAN_POINT('',(0.,6.,0.));
#281=CARTESIAN_POINT('',(-3.65,6.,0.));
#282=CARTESIAN_POINT('',(0.,-24.5,0.));
#283=CARTESIAN_POINT('',(0.,-24.5,0.));
#284=CARTESIAN_POINT('',(7.575,-24.5,0.));
#285=CARTESIAN_POINT('',(0.,0.,0.));
#286=CARTESIAN_POINT('',(7.575,0.,0.));
#287=CARTESIAN_POINT('',(0.,0.,0.));
#288=CARTESIAN_POINT('',(-8.67361737988404E-16,-19.327421875,0.));
#289=CARTESIAN_POINT('',(-8.67361737988404E-16,-25.2674588840434,0.));
#290=CARTESIAN_POINT('',(-1.15,-25.2674588840434,-6.89417506235687));
#291=CARTESIAN_POINT('',(1.15,-25.2674588840434,-6.89417506235687));
#292=CARTESIAN_POINT('',(-1.15,-19.327421875,0.));
#293=CARTESIAN_POINT('',(-1.15,-25.2674588840434,6.89417506235687));
#294=CARTESIAN_POINT('',(-8.67361737988404E-16,-25.2674588840434,0.));
#295=CARTESIAN_POINT('',(1.15,-25.2674588840434,6.89417506235687));
#296=CARTESIAN_POINT('',(1.15,-19.327421875,0.));
#297=CARTESIAN_POINT('',(-1.15,-25.2674588840434,-7.4));
#298=CARTESIAN_POINT('',(-1.15,-25.2674588840434,-7.4));
#299=CARTESIAN_POINT('',(1.15,-25.2674588840434,7.4));
#300=CARTESIAN_POINT('',(1.15,-25.2674588840434,7.4));
#301=CARTESIAN_POINT('',(0.,-25.2674588840434,0.));
#302=CARTESIAN_POINT('',(0.,-6.,0.));
#303=CARTESIAN_POINT('',(0.,-6.,0.));
#304=CARTESIAN_POINT('',(-3.65,-6.,0.));
#305=CARTESIAN_POINT('',(0.,-6.,0.));
#306=MECHANICAL_DESIGN_GEOMETRIC_PRESENTATION_REPRESENTATION('',(#122,#123,
#124,#125,#126,#127,#128,#129,#130,#131),#307);
#307=(
GEOMETRIC_REPRESENTATION_CONTEXT(3)
GLOBAL_UNCERTAINTY_ASSIGNED_CONTEXT((#308))
GLOBAL_UNIT_ASSIGNED_CONTEXT((#311,#310,#309))
REPRESENTATION_CONTEXT('SPL.1;8','TOP_LEVEL_ASSEMBLY_PART')
);
#308=UNCERTAINTY_MEASURE_WITH_UNIT(LENGTH_MEASURE(0.005),#311,
'DISTANCE_ACCURACY_VALUE','Maximum Tolerance applied to model');
#309=(
NAMED_UNIT(*)
SI_UNIT($,.STERADIAN.)
SOLID_ANGLE_UNIT()
);
#310=(
NAMED_UNIT(*)
PLANE_ANGLE_UNIT()
SI_UNIT($,.RADIAN.)
);
#311=(
LENGTH_UNIT()
NAMED_UNIT(*)
SI_UNIT(.MILLI.,.METRE.)
);
#312=PRODUCT_DEFINITION_SHAPE('','',#313);
#313=PRODUCT_DEFINITION('','',#315,#314);
#314=PRODUCT_DEFINITION_CONTEXT('',#321,'design');
#315=PRODUCT_DEFINITION_FORMATION_WITH_SPECIFIED_SOURCE('','',#317,
 .NOT_KNOWN.);
#316=PRODUCT_RELATED_PRODUCT_CATEGORY('','',(#317));
#317=PRODUCT('SPL.1;8','SPL.1;8','SPL.1;8',(#319));
#318=PRODUCT_CATEGORY('','');
#319=PRODUCT_CONTEXT('',#321,'mechanical');
#320=APPLICATION_PROTOCOL_DEFINITION('international standard',
'automotive_design',2010,#321);
#321=APPLICATION_CONTEXT(
'core data for automotive mechanical design processes');
ENDSEC;
END-ISO-10303-21;
