ISO-10303-21;
HEADER;
/* Generated by software containing ST-Developer
 * from STEP Tools, Inc. (www.steptools.com) 
 */
/* OPTION: strings as raw bytes, not using required /X/ escapes */

FILE_DESCRIPTION(
/* description */ ('Unknown'),
/* implementation_level */ '2;1');

FILE_NAME(
/* name */ 'SPLP.3;8',
/* time_stamp */ '2019-03-26T09:17:18-04:00',
/* author */ ('Unknown'),
/* organization */ ('Unknown'),
/* preprocessor_version */ 'ST-DEVELOPER v16.7',
/* originating_system */ 'DEX',
/* authorisation */ $);

FILE_SCHEMA (('AUTOMOTIVE_DESIGN {1 0 10303 214 3 1 1}'));
ENDSEC;

DATA;
#10=PROPERTY_DEFINITION_REPRESENTATION(#14,#12);
#11=PROPERTY_DEFINITION_REPRESENTATION(#15,#13);
#12=REPRESENTATION('',(#16),#233);
#13=REPRESENTATION('',(#17),#233);
#14=PROPERTY_DEFINITION('pmi validation property','',#238);
#15=PROPERTY_DEFINITION('pmi validation property','',#238);
#16=VALUE_REPRESENTATION_ITEM('number of annotations',COUNT_MEASURE(0.));
#17=VALUE_REPRESENTATION_ITEM('number of views',COUNT_MEASURE(0.));
#18=SHAPE_REPRESENTATION_RELATIONSHIP('','',#160,#19);
#19=ADVANCED_BREP_SHAPE_REPRESENTATION('',(#158),#233);
#20=SPHERICAL_SURFACE('',#170,9.48780487804879);
#21=PLANE('',#168);
#22=PLANE('',#172);
#23=PLANE('',#176);
#24=ORIENTED_EDGE('',*,*,#38,.T.);
#25=ORIENTED_EDGE('',*,*,#39,.T.);
#26=ORIENTED_EDGE('',*,*,#40,.F.);
#27=ORIENTED_EDGE('',*,*,#41,.T.);
#28=ORIENTED_EDGE('',*,*,#42,.T.);
#29=ORIENTED_EDGE('',*,*,#41,.F.);
#30=ORIENTED_EDGE('',*,*,#40,.T.);
#31=ORIENTED_EDGE('',*,*,#39,.F.);
#32=ORIENTED_EDGE('',*,*,#42,.F.);
#33=ORIENTED_EDGE('',*,*,#43,.T.);
#34=ORIENTED_EDGE('',*,*,#38,.F.);
#35=ORIENTED_EDGE('',*,*,#44,.T.);
#36=ORIENTED_EDGE('',*,*,#43,.F.);
#37=ORIENTED_EDGE('',*,*,#44,.F.);
#38=EDGE_CURVE('',#45,#45,#52,.T.);
#39=EDGE_CURVE('',#46,#46,#53,.T.);
#40=EDGE_CURVE('',#47,#47,#54,.T.);
#41=EDGE_CURVE('',#48,#48,#55,.T.);
#42=EDGE_CURVE('',#49,#49,#56,.T.);
#43=EDGE_CURVE('',#50,#50,#57,.T.);
#44=EDGE_CURVE('',#51,#51,#58,.T.);
#45=VERTEX_POINT('',#212);
#46=VERTEX_POINT('',#214);
#47=VERTEX_POINT('',#217);
#48=VERTEX_POINT('',#219);
#49=VERTEX_POINT('',#222);
#50=VERTEX_POINT('',#227);
#51=VERTEX_POINT('',#230);
#52=CIRCLE('',#163,8.331);
#53=CIRCLE('',#164,8.331);
#54=CIRCLE('',#166,9.4);
#55=CIRCLE('',#167,9.4);
#56=CIRCLE('',#169,8.331);
#57=CIRCLE('',#173,4.85);
#58=CIRCLE('',#175,4.85);
#59=EDGE_LOOP('',(#24));
#60=EDGE_LOOP('',(#25));
#61=EDGE_LOOP('',(#26));
#62=EDGE_LOOP('',(#27));
#63=EDGE_LOOP('',(#28));
#64=EDGE_LOOP('',(#29));
#65=EDGE_LOOP('',(#30));
#66=EDGE_LOOP('',(#31));
#67=EDGE_LOOP('',(#32));
#68=EDGE_LOOP('',(#33));
#69=EDGE_LOOP('',(#34));
#70=EDGE_LOOP('',(#35));
#71=EDGE_LOOP('',(#36));
#72=EDGE_LOOP('',(#37));
#73=FACE_BOUND('',#59,.T.);
#74=FACE_BOUND('',#60,.T.);
#75=FACE_BOUND('',#61,.T.);
#76=FACE_BOUND('',#62,.T.);
#77=FACE_BOUND('',#63,.T.);
#78=FACE_BOUND('',#64,.T.);
#79=FACE_BOUND('',#65,.T.);
#80=FACE_BOUND('',#66,.T.);
#81=FACE_BOUND('',#67,.T.);
#82=FACE_BOUND('',#68,.T.);
#83=FACE_BOUND('',#69,.T.);
#84=FACE_BOUND('',#70,.T.);
#85=FACE_BOUND('',#71,.T.);
#86=FACE_BOUND('',#72,.T.);
#87=CYLINDRICAL_SURFACE('',#162,8.331);
#88=CYLINDRICAL_SURFACE('',#165,9.4);
#89=CYLINDRICAL_SURFACE('',#171,8.331);
#90=CYLINDRICAL_SURFACE('',#174,4.85);
#91=STYLED_ITEM('',(#99),#149);
#92=STYLED_ITEM('',(#100),#150);
#93=STYLED_ITEM('',(#101),#151);
#94=STYLED_ITEM('',(#102),#152);
#95=STYLED_ITEM('',(#103),#153);
#96=STYLED_ITEM('',(#104),#154);
#97=STYLED_ITEM('',(#105),#155);
#98=STYLED_ITEM('',(#106),#156);
#99=PRESENTATION_STYLE_ASSIGNMENT((#107));
#100=PRESENTATION_STYLE_ASSIGNMENT((#108));
#101=PRESENTATION_STYLE_ASSIGNMENT((#109));
#102=PRESENTATION_STYLE_ASSIGNMENT((#110));
#103=PRESENTATION_STYLE_ASSIGNMENT((#111));
#104=PRESENTATION_STYLE_ASSIGNMENT((#112));
#105=PRESENTATION_STYLE_ASSIGNMENT((#113));
#106=PRESENTATION_STYLE_ASSIGNMENT((#114));
#107=SURFACE_STYLE_USAGE(.BOTH.,#115);
#108=SURFACE_STYLE_USAGE(.BOTH.,#116);
#109=SURFACE_STYLE_USAGE(.BOTH.,#117);
#110=SURFACE_STYLE_USAGE(.BOTH.,#118);
#111=SURFACE_STYLE_USAGE(.BOTH.,#119);
#112=SURFACE_STYLE_USAGE(.BOTH.,#120);
#113=SURFACE_STYLE_USAGE(.BOTH.,#121);
#114=SURFACE_STYLE_USAGE(.BOTH.,#122);
#115=SURFACE_SIDE_STYLE('',(#123));
#116=SURFACE_SIDE_STYLE('',(#124));
#117=SURFACE_SIDE_STYLE('',(#125));
#118=SURFACE_SIDE_STYLE('',(#126));
#119=SURFACE_SIDE_STYLE('',(#127));
#120=SURFACE_SIDE_STYLE('',(#128));
#121=SURFACE_SIDE_STYLE('',(#129));
#122=SURFACE_SIDE_STYLE('',(#130));
#123=SURFACE_STYLE_FILL_AREA(#131);
#124=SURFACE_STYLE_FILL_AREA(#132);
#125=SURFACE_STYLE_FILL_AREA(#133);
#126=SURFACE_STYLE_FILL_AREA(#134);
#127=SURFACE_STYLE_FILL_AREA(#135);
#128=SURFACE_STYLE_FILL_AREA(#136);
#129=SURFACE_STYLE_FILL_AREA(#137);
#130=SURFACE_STYLE_FILL_AREA(#138);
#131=FILL_AREA_STYLE('',(#139));
#132=FILL_AREA_STYLE('',(#140));
#133=FILL_AREA_STYLE('',(#141));
#134=FILL_AREA_STYLE('',(#142));
#135=FILL_AREA_STYLE('',(#143));
#136=FILL_AREA_STYLE('',(#144));
#137=FILL_AREA_STYLE('',(#145));
#138=FILL_AREA_STYLE('',(#146));
#139=FILL_AREA_STYLE_COLOUR('',#147);
#140=FILL_AREA_STYLE_COLOUR('',#148);
#141=FILL_AREA_STYLE_COLOUR('',#148);
#142=FILL_AREA_STYLE_COLOUR('',#148);
#143=FILL_AREA_STYLE_COLOUR('',#148);
#144=FILL_AREA_STYLE_COLOUR('',#148);
#145=FILL_AREA_STYLE_COLOUR('',#148);
#146=FILL_AREA_STYLE_COLOUR('',#148);
#147=COLOUR_RGB('',0.1875,0.75,0.581249892711639);
#148=COLOUR_RGB('',0.506983280181885,0.531564235687256,0.550000011920929);
#149=ADVANCED_FACE('',(#73,#74),#87,.T.);
#150=ADVANCED_FACE('',(#75,#76),#88,.T.);
#151=ADVANCED_FACE('',(#77,#78),#21,.F.);
#152=ADVANCED_FACE('',(#79),#20,.T.);
#153=ADVANCED_FACE('',(#80,#81),#89,.T.);
#154=ADVANCED_FACE('',(#82,#83),#22,.F.);
#155=ADVANCED_FACE('',(#84,#85),#90,.F.);
#156=ADVANCED_FACE('',(#86),#23,.F.);
#157=CLOSED_SHELL('',(#149,#150,#151,#152,#153,#154,#155,#156));
#158=MANIFOLD_SOLID_BREP('',#157);
#159=SHAPE_DEFINITION_REPRESENTATION(#238,#160);
#160=SHAPE_REPRESENTATION('SPLP.3;8',(#161),#233);
#161=AXIS2_PLACEMENT_3D('',#209,#177,#178);
#162=AXIS2_PLACEMENT_3D('',#210,#179,#180);
#163=AXIS2_PLACEMENT_3D('',#211,#181,#182);
#164=AXIS2_PLACEMENT_3D('',#213,#183,#184);
#165=AXIS2_PLACEMENT_3D('',#215,#185,#186);
#166=AXIS2_PLACEMENT_3D('',#216,#187,#188);
#167=AXIS2_PLACEMENT_3D('',#218,#189,#190);
#168=AXIS2_PLACEMENT_3D('',#220,#191,#192);
#169=AXIS2_PLACEMENT_3D('',#221,#193,#194);
#170=AXIS2_PLACEMENT_3D('',#223,#195,#196);
#171=AXIS2_PLACEMENT_3D('',#224,#197,#198);
#172=AXIS2_PLACEMENT_3D('',#225,#199,#200);
#173=AXIS2_PLACEMENT_3D('',#226,#201,#202);
#174=AXIS2_PLACEMENT_3D('',#228,#203,#204);
#175=AXIS2_PLACEMENT_3D('',#229,#205,#206);
#176=AXIS2_PLACEMENT_3D('',#231,#207,#208);
#177=DIRECTION('',(0.,0.,1.));
#178=DIRECTION('',(1.,0.,0.));
#179=DIRECTION('',(0.,1.,0.));
#180=DIRECTION('',(0.,0.,1.));
#181=DIRECTION('',(0.,1.,0.));
#182=DIRECTION('',(0.,0.,1.));
#183=DIRECTION('',(0.,-1.,0.));
#184=DIRECTION('',(0.,0.,1.));
#185=DIRECTION('',(0.,-1.,0.));
#186=DIRECTION('',(0.,0.,-1.));
#187=DIRECTION('',(0.,1.,0.));
#188=DIRECTION('',(1.,0.,0.));
#189=DIRECTION('',(0.,1.,0.));
#190=DIRECTION('',(1.,0.,0.));
#191=DIRECTION('',(0.,1.,0.));
#192=DIRECTION('',(0.,0.,1.));
#193=DIRECTION('',(0.,1.,0.));
#194=DIRECTION('',(0.,0.,1.));
#195=DIRECTION('',(0.,1.,0.));
#196=DIRECTION('',(-1.,0.,0.));
#197=DIRECTION('',(0.,1.,0.));
#198=DIRECTION('',(0.,0.,1.));
#199=DIRECTION('',(0.,1.,0.));
#200=DIRECTION('',(0.,0.,1.));
#201=DIRECTION('',(0.,1.,0.));
#202=DIRECTION('',(1.,0.,0.));
#203=DIRECTION('',(0.,-1.,0.));
#204=DIRECTION('',(0.,0.,-1.));
#205=DIRECTION('',(0.,1.,0.));
#206=DIRECTION('',(1.,0.,0.));
#207=DIRECTION('',(0.,1.,0.));
#208=DIRECTION('',(0.,0.,1.));
#209=CARTESIAN_POINT('',(0.,0.,0.));
#210=CARTESIAN_POINT('',(0.,-11.,0.));
#211=CARTESIAN_POINT('',(0.,-11.,0.));
#212=CARTESIAN_POINT('',(0.,-11.,8.331));
#213=CARTESIAN_POINT('',(0.,-0.999999999999999,0.));
#214=CARTESIAN_POINT('',(0.,-0.999999999999999,8.331));
#215=CARTESIAN_POINT('',(0.,48.4,0.));
#216=CARTESIAN_POINT('',(0.,48.4,0.));
#217=CARTESIAN_POINT('',(9.4,48.4,0.));
#218=CARTESIAN_POINT('',(0.,0.,0.));
#219=CARTESIAN_POINT('',(9.4,0.,0.));
#220=CARTESIAN_POINT('',(0.,0.,0.));
#221=CARTESIAN_POINT('',(0.,0.,0.));
#222=CARTESIAN_POINT('',(0.,0.,8.331));
#223=CARTESIAN_POINT('',(0.,47.1121951219512,0.));
#224=CARTESIAN_POINT('',(0.,-11.,0.));
#225=CARTESIAN_POINT('',(0.,-11.,0.));
#226=CARTESIAN_POINT('',(0.,-11.,0.));
#227=CARTESIAN_POINT('',(4.85,-11.,0.));
#228=CARTESIAN_POINT('',(0.,11.4968554969844,0.));
#229=CARTESIAN_POINT('',(0.,11.4968554969844,0.));
#230=CARTESIAN_POINT('',(4.85,11.4968554969844,0.));
#231=CARTESIAN_POINT('',(0.,11.4968554969844,0.));
#232=MECHANICAL_DESIGN_GEOMETRIC_PRESENTATION_REPRESENTATION('',(#91,#92,
#93,#94,#95,#96,#97,#98),#233);
#233=(
GEOMETRIC_REPRESENTATION_CONTEXT(3)
GLOBAL_UNCERTAINTY_ASSIGNED_CONTEXT((#234))
GLOBAL_UNIT_ASSIGNED_CONTEXT((#237,#236,#235))
REPRESENTATION_CONTEXT('SPLP.3;8','TOP_LEVEL_ASSEMBLY_PART')
);
#234=UNCERTAINTY_MEASURE_WITH_UNIT(LENGTH_MEASURE(0.005),#237,
'DISTANCE_ACCURACY_VALUE','Maximum Tolerance applied to model');
#235=(
NAMED_UNIT(*)
SI_UNIT($,.STERADIAN.)
SOLID_ANGLE_UNIT()
);
#236=(
NAMED_UNIT(*)
PLANE_ANGLE_UNIT()
SI_UNIT($,.RADIAN.)
);
#237=(
LENGTH_UNIT()
NAMED_UNIT(*)
SI_UNIT(.MILLI.,.METRE.)
);
#238=PRODUCT_DEFINITION_SHAPE('','',#239);
#239=PRODUCT_DEFINITION('','',#241,#240);
#240=PRODUCT_DEFINITION_CONTEXT('',#247,'design');
#241=PRODUCT_DEFINITION_FORMATION_WITH_SPECIFIED_SOURCE('','',#243,
 .NOT_KNOWN.);
#242=PRODUCT_RELATED_PRODUCT_CATEGORY('','',(#243));
#243=PRODUCT('SPLP.3;8','SPLP.3;8','SPLP.3;8',(#245));
#244=PRODUCT_CATEGORY('','');
#245=PRODUCT_CONTEXT('',#247,'mechanical');
#246=APPLICATION_PROTOCOL_DEFINITION('international standard',
'automotive_design',2010,#247);
#247=APPLICATION_CONTEXT(
'core data for automotive mechanical design processes');
ENDSEC;
END-ISO-10303-21;
