ISO-10303-21;
HEADER;
/* Generated by software containing ST-Developer
 * from STEP Tools, Inc. (www.steptools.com) 
 */
/* OPTION: strings as raw bytes, not using required /X/ escapes */

FILE_DESCRIPTION(
/* description */ ('Unknown'),
/* implementation_level */ '2;1');

FILE_NAME(
/* name */ 'SPLR.06',
/* time_stamp */ '2018-11-23T09:35:25-05:00',
/* author */ ('Unknown'),
/* organization */ ('Unknown'),
/* preprocessor_version */ 'ST-DEVELOPER v16.7',
/* originating_system */ 'DEX',
/* authorisation */ $);

FILE_SCHEMA (('AUTOMOTIVE_DESIGN {1 0 10303 214 3 1 1}'));
ENDSEC;

DATA;
#10=PROPERTY_DEFINITION_REPRESENTATION(#14,#12);
#11=PROPERTY_DEFINITION_REPRESENTATION(#15,#13);
#12=REPRESENTATION('',(#16),#203);
#13=REPRESENTATION('',(#17),#203);
#14=PROPERTY_DEFINITION('pmi validation property','',#208);
#15=PROPERTY_DEFINITION('pmi validation property','',#208);
#16=VALUE_REPRESENTATION_ITEM('number of annotations',COUNT_MEASURE(0.));
#17=VALUE_REPRESENTATION_ITEM('number of views',COUNT_MEASURE(0.));
#18=SHAPE_REPRESENTATION_RELATIONSHIP('','',#121,#19);
#19=ADVANCED_BREP_SHAPE_REPRESENTATION('',(#119),#203);
#20=TOROIDAL_SURFACE('',#136,3.95,0.999999999999999);
#21=CONICAL_SURFACE('',#134,3.7,0.785398163397449);
#22=SPHERICAL_SURFACE('',#128,6.37620192307693);
#23=PLANE('',#126);
#24=PLANE('',#132);
#25=PLANE('',#139);
#26=ORIENTED_EDGE('',*,*,#42,.F.);
#27=ORIENTED_EDGE('',*,*,#43,.T.);
#28=ORIENTED_EDGE('',*,*,#44,.T.);
#29=ORIENTED_EDGE('',*,*,#42,.T.);
#30=ORIENTED_EDGE('',*,*,#43,.F.);
#31=ORIENTED_EDGE('',*,*,#45,.T.);
#32=ORIENTED_EDGE('',*,*,#46,.T.);
#33=ORIENTED_EDGE('',*,*,#47,.T.);
#34=ORIENTED_EDGE('',*,*,#46,.F.);
#35=ORIENTED_EDGE('',*,*,#48,.T.);
#36=ORIENTED_EDGE('',*,*,#44,.F.);
#37=ORIENTED_EDGE('',*,*,#48,.F.);
#38=ORIENTED_EDGE('',*,*,#45,.F.);
#39=ORIENTED_EDGE('',*,*,#49,.T.);
#40=ORIENTED_EDGE('',*,*,#47,.F.);
#41=ORIENTED_EDGE('',*,*,#49,.F.);
#42=EDGE_CURVE('',#50,#50,#58,.T.);
#43=EDGE_CURVE('',#51,#51,#59,.T.);
#44=EDGE_CURVE('',#52,#52,#60,.F.);
#45=EDGE_CURVE('',#53,#53,#61,.T.);
#46=EDGE_CURVE('',#54,#54,#62,.T.);
#47=EDGE_CURVE('',#55,#55,#63,.T.);
#48=EDGE_CURVE('',#56,#56,#64,.F.);
#49=EDGE_CURVE('',#57,#57,#65,.T.);
#50=VERTEX_POINT('',#179);
#51=VERTEX_POINT('',#181);
#52=VERTEX_POINT('',#184);
#53=VERTEX_POINT('',#188);
#54=VERTEX_POINT('',#190);
#55=VERTEX_POINT('',#193);
#56=VERTEX_POINT('',#196);
#57=VERTEX_POINT('',#200);
#58=CIRCLE('',#124,6.375);
#59=CIRCLE('',#125,6.375);
#60=CIRCLE('',#127,3.7);
#61=CIRCLE('',#130,2.95);
#62=CIRCLE('',#131,2.95);
#63=CIRCLE('',#133,1.675);
#64=CIRCLE('',#135,3.24289321881345);
#65=CIRCLE('',#138,1.675);
#66=EDGE_LOOP('',(#26));
#67=EDGE_LOOP('',(#27));
#68=EDGE_LOOP('',(#28));
#69=EDGE_LOOP('',(#29));
#70=EDGE_LOOP('',(#30));
#71=EDGE_LOOP('',(#31));
#72=EDGE_LOOP('',(#32));
#73=EDGE_LOOP('',(#33));
#74=EDGE_LOOP('',(#34));
#75=EDGE_LOOP('',(#35));
#76=EDGE_LOOP('',(#36));
#77=EDGE_LOOP('',(#37));
#78=EDGE_LOOP('',(#38));
#79=EDGE_LOOP('',(#39));
#80=EDGE_LOOP('',(#40));
#81=EDGE_LOOP('',(#41));
#82=FACE_BOUND('',#66,.T.);
#83=FACE_BOUND('',#67,.T.);
#84=FACE_BOUND('',#68,.T.);
#85=FACE_BOUND('',#69,.T.);
#86=FACE_BOUND('',#70,.T.);
#87=FACE_BOUND('',#71,.T.);
#88=FACE_BOUND('',#72,.T.);
#89=FACE_BOUND('',#73,.T.);
#90=FACE_BOUND('',#74,.T.);
#91=FACE_BOUND('',#75,.T.);
#92=FACE_BOUND('',#76,.T.);
#93=FACE_BOUND('',#77,.T.);
#94=FACE_BOUND('',#78,.T.);
#95=FACE_BOUND('',#79,.T.);
#96=FACE_BOUND('',#80,.T.);
#97=FACE_BOUND('',#81,.T.);
#98=CYLINDRICAL_SURFACE('',#123,6.375);
#99=CYLINDRICAL_SURFACE('',#129,2.95);
#100=CYLINDRICAL_SURFACE('',#137,1.675);
#101=ADVANCED_FACE('',(#82,#83),#98,.T.);
#102=ADVANCED_FACE('',(#84,#85),#23,.T.);
#103=ADVANCED_FACE('',(#86),#22,.T.);
#104=ADVANCED_FACE('',(#87,#88),#99,.T.);
#105=ADVANCED_FACE('',(#89,#90),#24,.F.);
#106=ADVANCED_FACE('',(#91,#92),#21,.T.);
#107=ADVANCED_FACE('',(#93,#94),#20,.F.);
#108=ADVANCED_FACE('',(#95,#96),#100,.F.);
#109=ADVANCED_FACE('',(#97),#25,.F.);
#110=CLOSED_SHELL('',(#101,#102,#103,#104,#105,#106,#107,#108,#109));
#111=STYLED_ITEM('',(#112),#119);
#112=PRESENTATION_STYLE_ASSIGNMENT((#113));
#113=SURFACE_STYLE_USAGE(.BOTH.,#114);
#114=SURFACE_SIDE_STYLE('',(#115));
#115=SURFACE_STYLE_FILL_AREA(#116);
#116=FILL_AREA_STYLE('',(#117));
#117=FILL_AREA_STYLE_COLOUR('',#118);
#118=COLOUR_RGB('',0.506983280181885,0.531564235687256,0.550000011920929);
#119=MANIFOLD_SOLID_BREP('',#110);
#120=SHAPE_DEFINITION_REPRESENTATION(#208,#121);
#121=SHAPE_REPRESENTATION('SPLR.06',(#122),#203);
#122=AXIS2_PLACEMENT_3D('',#176,#140,#141);
#123=AXIS2_PLACEMENT_3D('',#177,#142,#143);
#124=AXIS2_PLACEMENT_3D('',#178,#144,#145);
#125=AXIS2_PLACEMENT_3D('',#180,#146,#147);
#126=AXIS2_PLACEMENT_3D('',#182,#148,#149);
#127=AXIS2_PLACEMENT_3D('',#183,#150,#151);
#128=AXIS2_PLACEMENT_3D('',#185,#152,#153);
#129=AXIS2_PLACEMENT_3D('',#186,#154,#155);
#130=AXIS2_PLACEMENT_3D('',#187,#156,#157);
#131=AXIS2_PLACEMENT_3D('',#189,#158,#159);
#132=AXIS2_PLACEMENT_3D('',#191,#160,#161);
#133=AXIS2_PLACEMENT_3D('',#192,#162,#163);
#134=AXIS2_PLACEMENT_3D('',#194,#164,#165);
#135=AXIS2_PLACEMENT_3D('',#195,#166,#167);
#136=AXIS2_PLACEMENT_3D('',#197,#168,#169);
#137=AXIS2_PLACEMENT_3D('',#198,#170,#171);
#138=AXIS2_PLACEMENT_3D('',#199,#172,#173);
#139=AXIS2_PLACEMENT_3D('',#201,#174,#175);
#140=DIRECTION('',(0.,0.,1.));
#141=DIRECTION('',(1.,0.,0.));
#142=DIRECTION('',(0.,-1.,0.));
#143=DIRECTION('',(0.,0.,-1.));
#144=DIRECTION('',(0.,1.,0.));
#145=DIRECTION('',(1.,0.,0.));
#146=DIRECTION('',(0.,1.,0.));
#147=DIRECTION('',(1.,0.,0.));
#148=DIRECTION('',(0.,1.,0.));
#149=DIRECTION('',(0.,0.,1.));
#150=DIRECTION('',(0.,1.,0.));
#151=DIRECTION('',(0.,0.,1.));
#152=DIRECTION('',(0.,1.,0.));
#153=DIRECTION('',(-1.,0.,-1.22464679914735E-16));
#154=DIRECTION('',(0.,-1.,0.));
#155=DIRECTION('',(0.,0.,-1.));
#156=DIRECTION('',(0.,1.,0.));
#157=DIRECTION('',(0.,0.,1.));
#158=DIRECTION('',(0.,-1.,0.));
#159=DIRECTION('',(-1.,0.,0.));
#160=DIRECTION('',(0.,-1.,0.));
#161=DIRECTION('',(0.,0.,-1.));
#162=DIRECTION('',(0.,-1.,0.));
#163=DIRECTION('',(-1.,0.,0.));
#164=DIRECTION('',(0.,-1.,0.));
#165=DIRECTION('',(0.,0.,-1.));
#166=DIRECTION('',(0.,1.,0.));
#167=DIRECTION('',(0.,0.,1.));
#168=DIRECTION('',(0.,1.,0.));
#169=DIRECTION('',(0.,0.,1.));
#170=DIRECTION('',(0.,1.,0.));
#171=DIRECTION('',(0.,0.,1.));
#172=DIRECTION('',(0.,-1.,0.));
#173=DIRECTION('',(-1.,0.,0.));
#174=DIRECTION('',(0.,-1.,0.));
#175=DIRECTION('',(0.,0.,-1.));
#176=CARTESIAN_POINT('',(0.,0.,0.));
#177=CARTESIAN_POINT('',(0.,20.,0.));
#178=CARTESIAN_POINT('',(0.,20.,0.));
#179=CARTESIAN_POINT('',(6.375,20.,0.));
#180=CARTESIAN_POINT('',(0.,0.,0.));
#181=CARTESIAN_POINT('',(6.375,0.,0.));
#182=CARTESIAN_POINT('',(0.,20.,0.));
#183=CARTESIAN_POINT('',(0.,20.,0.));
#184=CARTESIAN_POINT('',(0.,20.,3.7));
#185=CARTESIAN_POINT('',(0.,-0.123798076923069,0.));
#186=CARTESIAN_POINT('',(0.,41.,0.));
#187=CARTESIAN_POINT('',(0.,21.1642135623731,0.));
#188=CARTESIAN_POINT('',(0.,21.1642135623731,2.95));
#189=CARTESIAN_POINT('',(0.,41.,0.));
#190=CARTESIAN_POINT('',(-2.95,41.,0.));
#191=CARTESIAN_POINT('',(0.,41.,0.));
#192=CARTESIAN_POINT('',(0.,41.,0.));
#193=CARTESIAN_POINT('',(-1.675,41.,0.));
#194=CARTESIAN_POINT('',(0.,20.,0.));
#195=CARTESIAN_POINT('',(0.,20.4571067811865,0.));
#196=CARTESIAN_POINT('',(0.,20.4571067811865,3.24289321881345));
#197=CARTESIAN_POINT('',(0.,21.1642135623731,0.));
#198=CARTESIAN_POINT('',(0.,31.,0.));
#199=CARTESIAN_POINT('',(0.,31.,0.));
#200=CARTESIAN_POINT('',(-1.675,31.,0.));
#201=CARTESIAN_POINT('',(0.,31.,0.));
#202=MECHANICAL_DESIGN_GEOMETRIC_PRESENTATION_REPRESENTATION('',(#111),
#203);
#203=(
GEOMETRIC_REPRESENTATION_CONTEXT(3)
GLOBAL_UNCERTAINTY_ASSIGNED_CONTEXT((#204))
GLOBAL_UNIT_ASSIGNED_CONTEXT((#207,#206,#205))
REPRESENTATION_CONTEXT('SPLR.06','TOP_LEVEL_ASSEMBLY_PART')
);
#204=UNCERTAINTY_MEASURE_WITH_UNIT(LENGTH_MEASURE(0.005),#207,
'DISTANCE_ACCURACY_VALUE','Maximum Tolerance applied to model');
#205=(
NAMED_UNIT(*)
SI_UNIT($,.STERADIAN.)
SOLID_ANGLE_UNIT()
);
#206=(
NAMED_UNIT(*)
PLANE_ANGLE_UNIT()
SI_UNIT($,.RADIAN.)
);
#207=(
LENGTH_UNIT()
NAMED_UNIT(*)
SI_UNIT(.MILLI.,.METRE.)
);
#208=PRODUCT_DEFINITION_SHAPE('','',#209);
#209=PRODUCT_DEFINITION('','',#211,#210);
#210=PRODUCT_DEFINITION_CONTEXT('',#217,'design');
#211=PRODUCT_DEFINITION_FORMATION_WITH_SPECIFIED_SOURCE('','',#213,
 .NOT_KNOWN.);
#212=PRODUCT_RELATED_PRODUCT_CATEGORY('','',(#213));
#213=PRODUCT('SPLR.06','SPLR.06','SPLR.06',(#215));
#214=PRODUCT_CATEGORY('','');
#215=PRODUCT_CONTEXT('',#217,'mechanical');
#216=APPLICATION_PROTOCOL_DEFINITION('international standard',
'automotive_design',2010,#217);
#217=APPLICATION_CONTEXT(
'core data for automotive mechanical design processes');
ENDSEC;
END-ISO-10303-21;
