ISO-10303-21;
HEADER;
/* Generated by software containing ST-Developer
 * from STEP Tools, Inc. (www.steptools.com) 
 */
/* OPTION: strings as raw bytes, not using required /X/ escapes */

FILE_DESCRIPTION(
/* description */ ('Unknown'),
/* implementation_level */ '2;1');

FILE_NAME(
/* name */ 'SPLR.10',
/* time_stamp */ '2018-11-23T09:40:52-05:00',
/* author */ ('Unknown'),
/* organization */ ('Unknown'),
/* preprocessor_version */ 'ST-DEVELOPER v16.7',
/* originating_system */ 'DEX',
/* authorisation */ $);

FILE_SCHEMA (('AUTOMOTIVE_DESIGN {1 0 10303 214 3 1 1}'));
ENDSEC;

DATA;
#10=PROPERTY_DEFINITION_REPRESENTATION(#14,#12);
#11=PROPERTY_DEFINITION_REPRESENTATION(#15,#13);
#12=REPRESENTATION('',(#16),#227);
#13=REPRESENTATION('',(#17),#227);
#14=PROPERTY_DEFINITION('pmi validation property','',#232);
#15=PROPERTY_DEFINITION('pmi validation property','',#232);
#16=VALUE_REPRESENTATION_ITEM('number of annotations',COUNT_MEASURE(0.));
#17=VALUE_REPRESENTATION_ITEM('number of views',COUNT_MEASURE(0.));
#18=SHAPE_REPRESENTATION_RELATIONSHIP('','',#135,#19);
#19=ADVANCED_BREP_SHAPE_REPRESENTATION('',(#133),#227);
#20=TOROIDAL_SURFACE('',#155,5.95,0.999999999999999);
#21=CONICAL_SURFACE('',#152,4.95,0.785398163397448);
#22=CONICAL_SURFACE('',#153,6.95,0.785398163397448);
#23=VERTEX_LOOP('',#58);
#24=DEGENERATE_TOROIDAL_SURFACE('',#142,0.87101735015773,7.05398264984227,
 .T.);
#25=PLANE('',#140);
#26=PLANE('',#146);
#27=PLANE('',#151);
#28=ORIENTED_EDGE('',*,*,#46,.F.);
#29=ORIENTED_EDGE('',*,*,#47,.T.);
#30=ORIENTED_EDGE('',*,*,#48,.T.);
#31=ORIENTED_EDGE('',*,*,#46,.T.);
#32=ORIENTED_EDGE('',*,*,#47,.F.);
#33=ORIENTED_EDGE('',*,*,#49,.T.);
#34=ORIENTED_EDGE('',*,*,#50,.T.);
#35=ORIENTED_EDGE('',*,*,#51,.T.);
#36=ORIENTED_EDGE('',*,*,#52,.T.);
#37=ORIENTED_EDGE('',*,*,#53,.T.);
#38=ORIENTED_EDGE('',*,*,#52,.F.);
#39=ORIENTED_EDGE('',*,*,#53,.F.);
#40=ORIENTED_EDGE('',*,*,#51,.F.);
#41=ORIENTED_EDGE('',*,*,#50,.F.);
#42=ORIENTED_EDGE('',*,*,#54,.T.);
#43=ORIENTED_EDGE('',*,*,#48,.F.);
#44=ORIENTED_EDGE('',*,*,#54,.F.);
#45=ORIENTED_EDGE('',*,*,#49,.F.);
#46=EDGE_CURVE('',#55,#55,#65,.T.);
#47=EDGE_CURVE('',#56,#56,#66,.T.);
#48=EDGE_CURVE('',#57,#57,#67,.F.);
#49=EDGE_CURVE('',#59,#59,#68,.T.);
#50=EDGE_CURVE('',#60,#60,#69,.T.);
#51=EDGE_CURVE('',#61,#61,#70,.F.);
#52=EDGE_CURVE('',#62,#62,#71,.T.);
#53=EDGE_CURVE('',#63,#63,#72,.T.);
#54=EDGE_CURVE('',#64,#64,#73,.F.);
#55=VERTEX_POINT('',#199);
#56=VERTEX_POINT('',#201);
#57=VERTEX_POINT('',#204);
#58=VERTEX_POINT('',#206);
#59=VERTEX_POINT('',#209);
#60=VERTEX_POINT('',#211);
#61=VERTEX_POINT('',#214);
#62=VERTEX_POINT('',#216);
#63=VERTEX_POINT('',#219);
#64=VERTEX_POINT('',#224);
#65=CIRCLE('',#138,7.925);
#66=CIRCLE('',#139,7.925);
#67=CIRCLE('',#141,6.95);
#68=CIRCLE('',#144,4.95);
#69=CIRCLE('',#145,4.95);
#70=CIRCLE('',#147,4.2);
#71=CIRCLE('',#148,3.45);
#72=CIRCLE('',#150,3.45);
#73=CIRCLE('',#154,5.24289321881345);
#74=EDGE_LOOP('',(#28));
#75=EDGE_LOOP('',(#29));
#76=EDGE_LOOP('',(#30));
#77=EDGE_LOOP('',(#31));
#78=EDGE_LOOP('',(#32));
#79=EDGE_LOOP('',(#33));
#80=EDGE_LOOP('',(#34));
#81=EDGE_LOOP('',(#35));
#82=EDGE_LOOP('',(#36));
#83=EDGE_LOOP('',(#37));
#84=EDGE_LOOP('',(#38));
#85=EDGE_LOOP('',(#39));
#86=EDGE_LOOP('',(#40));
#87=EDGE_LOOP('',(#41));
#88=EDGE_LOOP('',(#42));
#89=EDGE_LOOP('',(#43));
#90=EDGE_LOOP('',(#44));
#91=EDGE_LOOP('',(#45));
#92=FACE_BOUND('',#74,.T.);
#93=FACE_BOUND('',#75,.T.);
#94=FACE_BOUND('',#76,.T.);
#95=FACE_BOUND('',#77,.T.);
#96=FACE_BOUND('',#23,.T.);
#97=FACE_BOUND('',#78,.T.);
#98=FACE_BOUND('',#79,.T.);
#99=FACE_BOUND('',#80,.T.);
#100=FACE_BOUND('',#81,.T.);
#101=FACE_BOUND('',#82,.T.);
#102=FACE_BOUND('',#83,.T.);
#103=FACE_BOUND('',#84,.T.);
#104=FACE_BOUND('',#85,.T.);
#105=FACE_BOUND('',#86,.T.);
#106=FACE_BOUND('',#87,.T.);
#107=FACE_BOUND('',#88,.T.);
#108=FACE_BOUND('',#89,.T.);
#109=FACE_BOUND('',#90,.T.);
#110=FACE_BOUND('',#91,.T.);
#111=CYLINDRICAL_SURFACE('',#137,7.925);
#112=CYLINDRICAL_SURFACE('',#143,4.95);
#113=CYLINDRICAL_SURFACE('',#149,3.45);
#114=ADVANCED_FACE('',(#92,#93),#111,.T.);
#115=ADVANCED_FACE('',(#94,#95),#25,.T.);
#116=ADVANCED_FACE('',(#96,#97),#24,.T.);
#117=ADVANCED_FACE('',(#98,#99),#112,.T.);
#118=ADVANCED_FACE('',(#100,#101),#26,.F.);
#119=ADVANCED_FACE('',(#102,#103),#113,.F.);
#120=ADVANCED_FACE('',(#104),#27,.F.);
#121=ADVANCED_FACE('',(#105,#106),#21,.T.);
#122=ADVANCED_FACE('',(#107,#108),#22,.T.);
#123=ADVANCED_FACE('',(#109,#110),#20,.F.);
#124=CLOSED_SHELL('',(#114,#115,#116,#117,#118,#119,#120,#121,#122,#123));
#125=STYLED_ITEM('',(#126),#133);
#126=PRESENTATION_STYLE_ASSIGNMENT((#127));
#127=SURFACE_STYLE_USAGE(.BOTH.,#128);
#128=SURFACE_SIDE_STYLE('',(#129));
#129=SURFACE_STYLE_FILL_AREA(#130);
#130=FILL_AREA_STYLE('',(#131));
#131=FILL_AREA_STYLE_COLOUR('',#132);
#132=COLOUR_RGB('',0.506983280181885,0.531564235687256,0.550000011920929);
#133=MANIFOLD_SOLID_BREP('',#124);
#134=SHAPE_DEFINITION_REPRESENTATION(#232,#135);
#135=SHAPE_REPRESENTATION('SPLR.10',(#136),#227);
#136=AXIS2_PLACEMENT_3D('',#196,#156,#157);
#137=AXIS2_PLACEMENT_3D('',#197,#158,#159);
#138=AXIS2_PLACEMENT_3D('',#198,#160,#161);
#139=AXIS2_PLACEMENT_3D('',#200,#162,#163);
#140=AXIS2_PLACEMENT_3D('',#202,#164,#165);
#141=AXIS2_PLACEMENT_3D('',#203,#166,#167);
#142=AXIS2_PLACEMENT_3D('',#205,#168,#169);
#143=AXIS2_PLACEMENT_3D('',#207,#170,#171);
#144=AXIS2_PLACEMENT_3D('',#208,#172,#173);
#145=AXIS2_PLACEMENT_3D('',#210,#174,#175);
#146=AXIS2_PLACEMENT_3D('',#212,#176,#177);
#147=AXIS2_PLACEMENT_3D('',#213,#178,#179);
#148=AXIS2_PLACEMENT_3D('',#215,#180,#181);
#149=AXIS2_PLACEMENT_3D('',#217,#182,#183);
#150=AXIS2_PLACEMENT_3D('',#218,#184,#185);
#151=AXIS2_PLACEMENT_3D('',#220,#186,#187);
#152=AXIS2_PLACEMENT_3D('',#221,#188,#189);
#153=AXIS2_PLACEMENT_3D('',#222,#190,#191);
#154=AXIS2_PLACEMENT_3D('',#223,#192,#193);
#155=AXIS2_PLACEMENT_3D('',#225,#194,#195);
#156=DIRECTION('',(0.,0.,1.));
#157=DIRECTION('',(1.,0.,0.));
#158=DIRECTION('',(0.,-1.,0.));
#159=DIRECTION('',(0.,0.,-1.));
#160=DIRECTION('',(0.,1.,0.));
#161=DIRECTION('',(1.,0.,0.));
#162=DIRECTION('',(0.,1.,0.));
#163=DIRECTION('',(1.,0.,0.));
#164=DIRECTION('',(0.,1.,0.));
#165=DIRECTION('',(0.,0.,1.));
#166=DIRECTION('',(0.,1.,0.));
#167=DIRECTION('',(0.,0.,1.));
#168=DIRECTION('',(0.,1.,0.));
#169=DIRECTION('',(0.,0.,1.));
#170=DIRECTION('',(0.,-1.,0.));
#171=DIRECTION('',(0.,0.,-1.));
#172=DIRECTION('',(0.,1.,0.));
#173=DIRECTION('',(0.,0.,1.));
#174=DIRECTION('',(0.,-1.,0.));
#175=DIRECTION('',(0.,0.,-1.));
#176=DIRECTION('',(0.,-1.,0.));
#177=DIRECTION('',(0.,0.,-1.));
#178=DIRECTION('',(0.,-1.,0.));
#179=DIRECTION('',(0.,0.,-1.));
#180=DIRECTION('',(0.,-1.,0.));
#181=DIRECTION('',(-1.,0.,0.));
#182=DIRECTION('',(0.,1.,0.));
#183=DIRECTION('',(0.,0.,1.));
#184=DIRECTION('',(0.,-1.,0.));
#185=DIRECTION('',(-1.,0.,0.));
#186=DIRECTION('',(0.,-1.,0.));
#187=DIRECTION('',(0.,0.,-1.));
#188=DIRECTION('',(0.,-1.,0.));
#189=DIRECTION('',(0.,0.,-1.));
#190=DIRECTION('',(0.,-1.,0.));
#191=DIRECTION('',(0.,0.,-1.));
#192=DIRECTION('',(0.,1.,0.));
#193=DIRECTION('',(0.,0.,1.));
#194=DIRECTION('',(0.,1.,0.));
#195=DIRECTION('',(0.,0.,1.));
#196=CARTESIAN_POINT('',(0.,0.,0.));
#197=CARTESIAN_POINT('',(0.,25.,0.));
#198=CARTESIAN_POINT('',(0.,25.,0.));
#199=CARTESIAN_POINT('',(7.925,25.,0.));
#200=CARTESIAN_POINT('',(0.,0.,0.));
#201=CARTESIAN_POINT('',(7.925,0.,0.));
#202=CARTESIAN_POINT('',(0.,25.,0.));
#203=CARTESIAN_POINT('',(0.,25.,0.));
#204=CARTESIAN_POINT('',(0.,25.,6.95));
#205=CARTESIAN_POINT('',(0.,0.,0.));
#206=CARTESIAN_POINT('',(1.40946282423116E-15,-7.,1.72609413621187E-31));
#207=CARTESIAN_POINT('',(0.,51.,0.));
#208=CARTESIAN_POINT('',(0.,27.4142135623731,0.));
#209=CARTESIAN_POINT('',(0.,27.4142135623731,4.95));
#210=CARTESIAN_POINT('',(0.,50.25,0.));
#211=CARTESIAN_POINT('',(0.,50.25,-4.95));
#212=CARTESIAN_POINT('',(0.,51.,0.));
#213=CARTESIAN_POINT('',(0.,51.,0.));
#214=CARTESIAN_POINT('',(0.,51.,-4.2));
#215=CARTESIAN_POINT('',(0.,51.,0.));
#216=CARTESIAN_POINT('',(-3.45,51.,0.));
#217=CARTESIAN_POINT('',(0.,41.,0.));
#218=CARTESIAN_POINT('',(0.,41.,0.));
#219=CARTESIAN_POINT('',(-3.45,41.,0.));
#220=CARTESIAN_POINT('',(0.,41.,0.));
#221=CARTESIAN_POINT('',(0.,50.25,0.));
#222=CARTESIAN_POINT('',(0.,25.,0.));
#223=CARTESIAN_POINT('',(0.,26.7071067811865,0.));
#224=CARTESIAN_POINT('',(0.,26.7071067811865,5.24289321881345));
#225=CARTESIAN_POINT('',(0.,27.4142135623731,0.));
#226=MECHANICAL_DESIGN_GEOMETRIC_PRESENTATION_REPRESENTATION('',(#125),
#227);
#227=(
GEOMETRIC_REPRESENTATION_CONTEXT(3)
GLOBAL_UNCERTAINTY_ASSIGNED_CONTEXT((#228))
GLOBAL_UNIT_ASSIGNED_CONTEXT((#231,#230,#229))
REPRESENTATION_CONTEXT('SPLR.10','TOP_LEVEL_ASSEMBLY_PART')
);
#228=UNCERTAINTY_MEASURE_WITH_UNIT(LENGTH_MEASURE(0.005),#231,
'DISTANCE_ACCURACY_VALUE','Maximum Tolerance applied to model');
#229=(
NAMED_UNIT(*)
SI_UNIT($,.STERADIAN.)
SOLID_ANGLE_UNIT()
);
#230=(
NAMED_UNIT(*)
PLANE_ANGLE_UNIT()
SI_UNIT($,.RADIAN.)
);
#231=(
LENGTH_UNIT()
NAMED_UNIT(*)
SI_UNIT(.MILLI.,.METRE.)
);
#232=PRODUCT_DEFINITION_SHAPE('','',#233);
#233=PRODUCT_DEFINITION('','',#235,#234);
#234=PRODUCT_DEFINITION_CONTEXT('',#241,'design');
#235=PRODUCT_DEFINITION_FORMATION_WITH_SPECIFIED_SOURCE('','',#237,
 .NOT_KNOWN.);
#236=PRODUCT_RELATED_PRODUCT_CATEGORY('','',(#237));
#237=PRODUCT('SPLR.10','SPLR.10','SPLR.10',(#239));
#238=PRODUCT_CATEGORY('','');
#239=PRODUCT_CONTEXT('',#241,'mechanical');
#240=APPLICATION_PROTOCOL_DEFINITION('international standard',
'automotive_design',2010,#241);
#241=APPLICATION_CONTEXT(
'core data for automotive mechanical design processes');
ENDSEC;
END-ISO-10303-21;
