ISO-10303-21;
HEADER;
/* Generated by software containing ST-Developer
 * from STEP Tools, Inc. (www.steptools.com) 
 */
/* OPTION: strings as raw bytes, not using required /X/ escapes */

FILE_DESCRIPTION(
/* description */ ('Unknown'),
/* implementation_level */ '2;1');

FILE_NAME(
/* name */ 'SPLR.12',
/* time_stamp */ '2019-02-14T14:41:27-05:00',
/* author */ ('Unknown'),
/* organization */ ('Unknown'),
/* preprocessor_version */ 'ST-DEVELOPER v16.7',
/* originating_system */ 'DEX',
/* authorisation */ $);

FILE_SCHEMA (('AUTOMOTIVE_DESIGN {1 0 10303 214 3 1 1}'));
ENDSEC;

DATA;
#10=PROPERTY_DEFINITION_REPRESENTATION(#14,#12);
#11=PROPERTY_DEFINITION_REPRESENTATION(#15,#13);
#12=REPRESENTATION('',(#16),#260);
#13=REPRESENTATION('',(#17),#260);
#14=PROPERTY_DEFINITION('pmi validation property','',#265);
#15=PROPERTY_DEFINITION('pmi validation property','',#265);
#16=VALUE_REPRESENTATION_ITEM('number of annotations',COUNT_MEASURE(0.));
#17=VALUE_REPRESENTATION_ITEM('number of views',COUNT_MEASURE(0.));
#18=SHAPE_REPRESENTATION_RELATIONSHIP('','',#178,#19);
#19=ADVANCED_BREP_SHAPE_REPRESENTATION('',(#176),#260);
#20=SPHERICAL_SURFACE('',#189,9.49316406250001);
#21=CONICAL_SURFACE('',#186,6.,0.785398163396003);
#22=CONICAL_SURFACE('',#187,6.,0.232103838075156);
#23=PLANE('',#183);
#24=PLANE('',#193);
#25=PLANE('',#196);
#26=ORIENTED_EDGE('',*,*,#42,.T.);
#27=ORIENTED_EDGE('',*,*,#43,.F.);
#28=ORIENTED_EDGE('',*,*,#44,.T.);
#29=ORIENTED_EDGE('',*,*,#45,.T.);
#30=ORIENTED_EDGE('',*,*,#45,.F.);
#31=ORIENTED_EDGE('',*,*,#42,.F.);
#32=ORIENTED_EDGE('',*,*,#46,.T.);
#33=ORIENTED_EDGE('',*,*,#43,.T.);
#34=ORIENTED_EDGE('',*,*,#47,.F.);
#35=ORIENTED_EDGE('',*,*,#47,.T.);
#36=ORIENTED_EDGE('',*,*,#48,.F.);
#37=ORIENTED_EDGE('',*,*,#46,.F.);
#38=ORIENTED_EDGE('',*,*,#48,.T.);
#39=ORIENTED_EDGE('',*,*,#49,.T.);
#40=ORIENTED_EDGE('',*,*,#44,.F.);
#41=ORIENTED_EDGE('',*,*,#49,.F.);
#42=EDGE_CURVE('',#50,#50,#58,.T.);
#43=EDGE_CURVE('',#51,#51,#59,.T.);
#44=EDGE_CURVE('',#52,#52,#60,.T.);
#45=EDGE_CURVE('',#53,#53,#61,.F.);
#46=EDGE_CURVE('',#54,#54,#62,.T.);
#47=EDGE_CURVE('',#55,#55,#63,.T.);
#48=EDGE_CURVE('',#56,#56,#64,.T.);
#49=EDGE_CURVE('',#57,#57,#65,.T.);
#50=VERTEX_POINT('',#236);
#51=VERTEX_POINT('',#238);
#52=VERTEX_POINT('',#241);
#53=VERTEX_POINT('',#243);
#54=VERTEX_POINT('',#247);
#55=VERTEX_POINT('',#250);
#56=VERTEX_POINT('',#253);
#57=VERTEX_POINT('',#257);
#58=CIRCLE('',#181,6.);
#59=CIRCLE('',#182,6.);
#60=CIRCLE('',#184,4.25);
#61=CIRCLE('',#185,5.50000000000144);
#62=CIRCLE('',#188,6.65);
#63=CIRCLE('',#190,9.375);
#64=CIRCLE('',#192,9.375);
#65=CIRCLE('',#195,4.25);
#66=EDGE_LOOP('',(#26));
#67=EDGE_LOOP('',(#27));
#68=EDGE_LOOP('',(#28));
#69=EDGE_LOOP('',(#29));
#70=EDGE_LOOP('',(#30));
#71=EDGE_LOOP('',(#31));
#72=EDGE_LOOP('',(#32));
#73=EDGE_LOOP('',(#33));
#74=EDGE_LOOP('',(#34));
#75=EDGE_LOOP('',(#35));
#76=EDGE_LOOP('',(#36));
#77=EDGE_LOOP('',(#37));
#78=EDGE_LOOP('',(#38));
#79=EDGE_LOOP('',(#39));
#80=EDGE_LOOP('',(#40));
#81=EDGE_LOOP('',(#41));
#82=FACE_BOUND('',#66,.T.);
#83=FACE_BOUND('',#67,.T.);
#84=FACE_BOUND('',#68,.T.);
#85=FACE_BOUND('',#69,.T.);
#86=FACE_BOUND('',#70,.T.);
#87=FACE_BOUND('',#71,.T.);
#88=FACE_BOUND('',#72,.T.);
#89=FACE_BOUND('',#73,.T.);
#90=FACE_BOUND('',#74,.T.);
#91=FACE_BOUND('',#75,.T.);
#92=FACE_BOUND('',#76,.T.);
#93=FACE_BOUND('',#77,.T.);
#94=FACE_BOUND('',#78,.T.);
#95=FACE_BOUND('',#79,.T.);
#96=FACE_BOUND('',#80,.T.);
#97=FACE_BOUND('',#81,.T.);
#98=CYLINDRICAL_SURFACE('',#180,6.);
#99=CYLINDRICAL_SURFACE('',#191,9.375);
#100=CYLINDRICAL_SURFACE('',#194,4.25);
#101=STYLED_ITEM('',(#110),#166);
#102=STYLED_ITEM('',(#111),#167);
#103=STYLED_ITEM('',(#112),#168);
#104=STYLED_ITEM('',(#113),#169);
#105=STYLED_ITEM('',(#114),#170);
#106=STYLED_ITEM('',(#115),#171);
#107=STYLED_ITEM('',(#116),#172);
#108=STYLED_ITEM('',(#117),#173);
#109=STYLED_ITEM('',(#118),#174);
#110=PRESENTATION_STYLE_ASSIGNMENT((#119));
#111=PRESENTATION_STYLE_ASSIGNMENT((#120));
#112=PRESENTATION_STYLE_ASSIGNMENT((#121));
#113=PRESENTATION_STYLE_ASSIGNMENT((#122));
#114=PRESENTATION_STYLE_ASSIGNMENT((#123));
#115=PRESENTATION_STYLE_ASSIGNMENT((#124));
#116=PRESENTATION_STYLE_ASSIGNMENT((#125));
#117=PRESENTATION_STYLE_ASSIGNMENT((#126));
#118=PRESENTATION_STYLE_ASSIGNMENT((#127));
#119=SURFACE_STYLE_USAGE(.BOTH.,#128);
#120=SURFACE_STYLE_USAGE(.BOTH.,#129);
#121=SURFACE_STYLE_USAGE(.BOTH.,#130);
#122=SURFACE_STYLE_USAGE(.BOTH.,#131);
#123=SURFACE_STYLE_USAGE(.BOTH.,#132);
#124=SURFACE_STYLE_USAGE(.BOTH.,#133);
#125=SURFACE_STYLE_USAGE(.BOTH.,#134);
#126=SURFACE_STYLE_USAGE(.BOTH.,#135);
#127=SURFACE_STYLE_USAGE(.BOTH.,#136);
#128=SURFACE_SIDE_STYLE('',(#137));
#129=SURFACE_SIDE_STYLE('',(#138));
#130=SURFACE_SIDE_STYLE('',(#139));
#131=SURFACE_SIDE_STYLE('',(#140));
#132=SURFACE_SIDE_STYLE('',(#141));
#133=SURFACE_SIDE_STYLE('',(#142));
#134=SURFACE_SIDE_STYLE('',(#143));
#135=SURFACE_SIDE_STYLE('',(#144));
#136=SURFACE_SIDE_STYLE('',(#145));
#137=SURFACE_STYLE_FILL_AREA(#146);
#138=SURFACE_STYLE_FILL_AREA(#147);
#139=SURFACE_STYLE_FILL_AREA(#148);
#140=SURFACE_STYLE_FILL_AREA(#149);
#141=SURFACE_STYLE_FILL_AREA(#150);
#142=SURFACE_STYLE_FILL_AREA(#151);
#143=SURFACE_STYLE_FILL_AREA(#152);
#144=SURFACE_STYLE_FILL_AREA(#153);
#145=SURFACE_STYLE_FILL_AREA(#154);
#146=FILL_AREA_STYLE('',(#155));
#147=FILL_AREA_STYLE('',(#156));
#148=FILL_AREA_STYLE('',(#157));
#149=FILL_AREA_STYLE('',(#158));
#150=FILL_AREA_STYLE('',(#159));
#151=FILL_AREA_STYLE('',(#160));
#152=FILL_AREA_STYLE('',(#161));
#153=FILL_AREA_STYLE('',(#162));
#154=FILL_AREA_STYLE('',(#163));
#155=FILL_AREA_STYLE_COLOUR('',#164);
#156=FILL_AREA_STYLE_COLOUR('',#164);
#157=FILL_AREA_STYLE_COLOUR('',#164);
#158=FILL_AREA_STYLE_COLOUR('',#164);
#159=FILL_AREA_STYLE_COLOUR('',#165);
#160=FILL_AREA_STYLE_COLOUR('',#165);
#161=FILL_AREA_STYLE_COLOUR('',#164);
#162=FILL_AREA_STYLE_COLOUR('',#164);
#163=FILL_AREA_STYLE_COLOUR('',#164);
#164=COLOUR_RGB('',0.200000002980232,0.200000002980232,0.200000002980232);
#165=COLOUR_RGB('',0.5,0.5,0.5);
#166=ADVANCED_FACE('',(#82,#83),#98,.T.);
#167=ADVANCED_FACE('',(#84,#85),#23,.F.);
#168=ADVANCED_FACE('',(#86,#87),#21,.T.);
#169=ADVANCED_FACE('',(#88,#89),#22,.T.);
#170=ADVANCED_FACE('',(#90),#20,.T.);
#171=ADVANCED_FACE('',(#91,#92),#99,.T.);
#172=ADVANCED_FACE('',(#93,#94),#24,.T.);
#173=ADVANCED_FACE('',(#95,#96),#100,.F.);
#174=ADVANCED_FACE('',(#97),#25,.F.);
#175=CLOSED_SHELL('',(#166,#167,#168,#169,#170,#171,#172,#173,#174));
#176=MANIFOLD_SOLID_BREP('',#175);
#177=SHAPE_DEFINITION_REPRESENTATION(#265,#178);
#178=SHAPE_REPRESENTATION('SPLR.12',(#179),#260);
#179=AXIS2_PLACEMENT_3D('',#233,#197,#198);
#180=AXIS2_PLACEMENT_3D('',#234,#199,#200);
#181=AXIS2_PLACEMENT_3D('',#235,#201,#202);
#182=AXIS2_PLACEMENT_3D('',#237,#203,#204);
#183=AXIS2_PLACEMENT_3D('',#239,#205,#206);
#184=AXIS2_PLACEMENT_3D('',#240,#207,#208);
#185=AXIS2_PLACEMENT_3D('',#242,#209,#210);
#186=AXIS2_PLACEMENT_3D('',#244,#211,#212);
#187=AXIS2_PLACEMENT_3D('',#245,#213,#214);
#188=AXIS2_PLACEMENT_3D('',#246,#215,#216);
#189=AXIS2_PLACEMENT_3D('',#248,#217,#218);
#190=AXIS2_PLACEMENT_3D('',#249,#219,#220);
#191=AXIS2_PLACEMENT_3D('',#251,#221,#222);
#192=AXIS2_PLACEMENT_3D('',#252,#223,#224);
#193=AXIS2_PLACEMENT_3D('',#254,#225,#226);
#194=AXIS2_PLACEMENT_3D('',#255,#227,#228);
#195=AXIS2_PLACEMENT_3D('',#256,#229,#230);
#196=AXIS2_PLACEMENT_3D('',#258,#231,#232);
#197=DIRECTION('',(0.,0.,1.));
#198=DIRECTION('',(1.,0.,0.));
#199=DIRECTION('',(0.,-1.,0.));
#200=DIRECTION('',(0.,0.,-1.));
#201=DIRECTION('',(0.,-1.,0.));
#202=DIRECTION('',(0.,0.,-1.));
#203=DIRECTION('',(0.,-1.,0.));
#204=DIRECTION('',(1.,0.,0.));
#205=DIRECTION('',(0.,-1.,0.));
#206=DIRECTION('',(0.,0.,-1.));
#207=DIRECTION('',(0.,-1.,0.));
#208=DIRECTION('',(-1.,0.,0.));
#209=DIRECTION('',(0.,-1.,0.));
#210=DIRECTION('',(0.,0.,-1.));
#211=DIRECTION('',(0.,-1.,0.));
#212=DIRECTION('',(0.,0.,-1.));
#213=DIRECTION('',(0.,-1.,0.));
#214=DIRECTION('',(0.,0.,-1.));
#215=DIRECTION('',(0.,1.,0.));
#216=DIRECTION('',(1.,0.,0.));
#217=DIRECTION('',(0.,-1.,0.));
#218=DIRECTION('',(-1.,0.,0.));
#219=DIRECTION('',(0.,1.,0.));
#220=DIRECTION('',(1.,0.,0.));
#221=DIRECTION('',(0.,1.,0.));
#222=DIRECTION('',(0.,0.,1.));
#223=DIRECTION('',(0.,1.,0.));
#224=DIRECTION('',(1.,0.,0.));
#225=DIRECTION('',(0.,1.,0.));
#226=DIRECTION('',(0.,0.,1.));
#227=DIRECTION('',(0.,1.,0.));
#228=DIRECTION('',(0.,0.,1.));
#229=DIRECTION('',(0.,-1.,0.));
#230=DIRECTION('',(-1.,0.,0.));
#231=DIRECTION('',(0.,-1.,0.));
#232=DIRECTION('',(0.,0.,-1.));
#233=CARTESIAN_POINT('',(0.,0.,0.));
#234=CARTESIAN_POINT('',(0.,26.,0.));
#235=CARTESIAN_POINT('',(0.,25.5,0.));
#236=CARTESIAN_POINT('',(0.,25.5,-6.));
#237=CARTESIAN_POINT('',(0.,0.,0.));
#238=CARTESIAN_POINT('',(6.,0.,0.));
#239=CARTESIAN_POINT('',(0.,26.,0.));
#240=CARTESIAN_POINT('',(0.,26.,0.));
#241=CARTESIAN_POINT('',(-4.25,26.,0.));
#242=CARTESIAN_POINT('',(0.,26.,0.));
#243=CARTESIAN_POINT('',(0.,26.,-5.50000000000144));
#244=CARTESIAN_POINT('',(0.,25.5,0.));
#245=CARTESIAN_POINT('',(0.,0.,0.));
#246=CARTESIAN_POINT('',(0.,-2.75,0.));
#247=CARTESIAN_POINT('',(6.65,-2.75,0.));
#248=CARTESIAN_POINT('',(2.60208521396521E-15,-47.2568359375,0.));
#249=CARTESIAN_POINT('',(0.,-48.75,0.));
#250=CARTESIAN_POINT('',(9.375,-48.75,0.));
#251=CARTESIAN_POINT('',(0.,-48.75,0.));
#252=CARTESIAN_POINT('',(0.,-2.75,0.));
#253=CARTESIAN_POINT('',(9.375,-2.75,0.));
#254=CARTESIAN_POINT('',(0.,-2.75,0.));
#255=CARTESIAN_POINT('',(0.,-2.75,0.));
#256=CARTESIAN_POINT('',(0.,-2.75,0.));
#257=CARTESIAN_POINT('',(-4.25,-2.75,0.));
#258=CARTESIAN_POINT('',(0.,-2.75,0.));
#259=MECHANICAL_DESIGN_GEOMETRIC_PRESENTATION_REPRESENTATION('',(#101,#102,
#103,#104,#105,#106,#107,#108,#109),#260);
#260=(
GEOMETRIC_REPRESENTATION_CONTEXT(3)
GLOBAL_UNCERTAINTY_ASSIGNED_CONTEXT((#261))
GLOBAL_UNIT_ASSIGNED_CONTEXT((#264,#263,#262))
REPRESENTATION_CONTEXT('SPLR.12','TOP_LEVEL_ASSEMBLY_PART')
);
#261=UNCERTAINTY_MEASURE_WITH_UNIT(LENGTH_MEASURE(0.005),#264,
'DISTANCE_ACCURACY_VALUE','Maximum Tolerance applied to model');
#262=(
NAMED_UNIT(*)
SI_UNIT($,.STERADIAN.)
SOLID_ANGLE_UNIT()
);
#263=(
NAMED_UNIT(*)
PLANE_ANGLE_UNIT()
SI_UNIT($,.RADIAN.)
);
#264=(
LENGTH_UNIT()
NAMED_UNIT(*)
SI_UNIT(.MILLI.,.METRE.)
);
#265=PRODUCT_DEFINITION_SHAPE('','',#266);
#266=PRODUCT_DEFINITION('','',#268,#267);
#267=PRODUCT_DEFINITION_CONTEXT('',#274,'design');
#268=PRODUCT_DEFINITION_FORMATION_WITH_SPECIFIED_SOURCE('','',#270,
 .NOT_KNOWN.);
#269=PRODUCT_RELATED_PRODUCT_CATEGORY('','',(#270));
#270=PRODUCT('SPLR.12','SPLR.12','SPLR.12',(#272));
#271=PRODUCT_CATEGORY('','');
#272=PRODUCT_CONTEXT('',#274,'mechanical');
#273=APPLICATION_PROTOCOL_DEFINITION('international standard',
'automotive_design',2010,#274);
#274=APPLICATION_CONTEXT(
'core data for automotive mechanical design processes');
ENDSEC;
END-ISO-10303-21;
